Cueva Del Gato tab with lyrics by Paco De Lucia - Easy chords and tabs for guitar

Paco De Lucia – Cueva Del Gato tab

Cueva del Gato (Rondeсa) - Paco de Lucia (born 1947)

tuning - E B F# D A D

E ||----------------------|----------------------|B ||--2--------0----------|----------------------|F#||----------------4-2---|-------------2--------|D ||----------------------|-----------0----------|A ||----------------------|---------4------------|D ||----------------------|-------3--------------|
--------------------------|-----------------------------|--------0-0-2--------2-0--|-----------------------0-4-0-|--2-4-4-------------------|----4-2----------2-4-4-------|--------------------------|---------------0-------------|--------------------------|-------------4---------------|--------------------------|-----------3-----------------|
--------------------------|---------------------------|----0---------------------|--------0------------------|------4----2-0----------0-|--2-2-4---4----4-2-0-2-----|----------------------0---|---------------------------|--------------------3-----|---------------------------|------------------0-------|---------------------------|
------------------------|-----------------------|-------------2--------2-|--3-2------0-----------|-----------2------------|----------------4-2----|---------0--------------|-----------------------|-------4----------------|-----------------------|-----3------------------|-----------------------|
-----------------------------|--------------------------|----------------0-0-2-0----0-|------------------0-4-0---|----------2-4-4--------------|-----4-2----2-4-4---------|--------0--------------------|--------------------------|------4----------------------|--------------------------|----3------------------------|--------------------------|
----------------------------|---------------------------|---0------------------------|-----------------------0---|-----4----2-0-------0---2---|---------------0-2-2-4---4-|------------------0---------|-------------0-------------|----------------0-----3-----|-----------3---------------|--------------0-------------|---------0-----------------|
------------------------|-------------------4-4-|------------------------|-----------------------|-----4-2-0-2------------|----2------------------|------------------------|--0--------------------|----------------------4-|-----------------------|--------------------3---|-----------------2-----|
--4-4---4-4-4-4---5-5-4-----2-2-2-|--2---2-2-2-2---4-2-0-0-------0--|------------------------5---------|---------------------------------|----------------2-----------------|--------------0------------------|------0---------------------------|----0-----------------------0----|----------------------------------|--------------------------3------|--------------------------0-------|------------------------0--------|
--------------------------------|----------------------0-0---4-4-4-|----3---2-2-2-2---2-2-2-2---2-2-|--2-2---2-2-2-2---3-3-------------|--------------------------2-----|----------------------------------|----------------0---------------|----------------0-----------------|------4-------------------------|------4---------------------------|--------------------------------|--------------------------2-------|
--4---4-4-4-4---5-5-4-----2-2-2-2-|----2-2-2-2---4-4-2-0-------0---|----------------------5-----------|--------------------------------|--------------2-------------------|------------0-------------------|----0-----------------------------|--0-----------------------0-----|----------------------------------|------------------------3-------|------------------------0---------|----------------------0---------|
------------------------------|----------------2-2-2-2---2-2-|---3---2-2-2-2---2-2-2-2------|------------------------------|-------------------------2----|------------------------------|---------------0--------------|--------0---2-----------------|-----4------------------------|------------------------0-----|------------------------------|------0---2---4---------------|
--2-2---2-2-2-2---0-0-0-0---4-4-2-|--2---0-0-0-0---2-2-2-2---4-4-2-2-|----------------------------------|----------------------------------|----------------------------------|----------------------------------|------0-------------------0-------|------------------------2---------|----------------------------------|----------------------------------|----------------4-----------------|----3---------2-------------------|
----0-0-0-0---0-0-0-0---0-0-0-0---|--------0---2-2-2-2---4-4-2-2---0-|----------------------------------|--2-2-3---------------------------|--2-----------------------------2-|------------------------------0---|----------------------2-----------|--------------------0-------------|----------------------------------|----------------------------------|------------2---------------------|----------0-----------------------|
--0-2-2---0-0-0-0---2-2-2-2---0-0-|--0-0---2-2-2-2---4-4-2-2---0-0-0-|----------------------------------|----------------------------------|----------------------------------|--------------------------2-------|----------------------------------|----------------2-----------------|----------------------------------|----------------------------------|--------6---------4---------3-----|------2---------------------------|
--0---0-0-0-0---0-0-0-0-----0-|--1-2---3-3-3-3---3-3-3-3---3-0-1-|------------------------------|----------------------------------|------------------------------|--------------------------1-------|--------------2---------------|----------------2-----------------|------------------------------|------0---------------------------|----2-------------------------|----------------------------------|
--2---3-3-3-3---0-0-0-0---3-3-3-3-|----2-2-2-2---2-2-5-5---2-2-0-0---|----------------------------------|----------------------------------|------------------------1---------|----------------------0-----------|--------------2-------------------|------------0---------------------|----0-----------------------------|----------------------------------|----------------------------------|--0-----------------------------0-|
------------0-0-0-0---2-2-4-4---5-|--5-5-5---5-5-5-5---5-5-4-4---0-0-|--3-3-3-3-------------------------|----------------------------------|--------------------0-------------|----------------------------------|----------0-----------------------|------------------4---------------|----------------------------------|--------5-------------------------|------------------------------0---|----------------------------0-----|
--0-0---4-4-4-4---2-4-2-0-------0-|-------------------------------|----------------------------------|-----3---2-2-2-2---2-2-2-2---2-|----------------------------------|---------------------------2---|------0---------4-------------0---|-----------------0-------------|----------------------------3-----|-------4-----------------------|--------------------------0-------|-------------------------------|
------------------------0-0---2-2-|--2-2---5-5-2-2---2-5-2-0---------|--2-2-2---2-2-2-2---3-3-----------|----------------------------3-3-3-|----------------------------------|----------------------------------|------------------0---------------|------0---------------------------|--------4-------------------------|----------------------------------|----------------------------0-----|----------------0---------0-------|
------0-0-0-0---2-2-2-2---4-4-4-4-|----5-5-5-5---4-4-2-2---0-0-0-0---|--3-------------------------------|----------------------------------|--------------0-------------------|----------------------------------|----0-----------------------------|--2---------6---------------------|----------------------------------|--------------------------------2-|------------------------2---------|----------------------2-----------|
----------------0-0---2-2-2-2---2-|--2-5-5---2-2-0-0-----------------|--3-3-2-2---3-3-------------------|--------------------3-3-3-3---2-2-|----------------------------------|--------0-------------------------|----------2-------------------0---|----------------------------------|----------------------------------|----------------------------0-----|--------------------0-------------|------------------0---------------|
------------------0-0-0-4---0-0-0-|--4---0-0-0--------------|--2-2---0-0-2-3-------------------|------------3------------|----------------------------------|----0--------------------|------0-------------------0-------|-------------------------|----------------------------------|--------------4----------|----------------0-----------------|-------------------------|
-----------------------------|-----------------------|-----------------------------|-----------------------|--------2---0-----0---0------|---------------------2-|------0---3---3-0---3---3----|--0----------------0---|----4------------------------|----4------------4-----|-----------------------------|-----------------------|
-------------------------------|----------------------------------|-------------------------------|----------------------------------|----0-----0---0----------------|--0-0-1-1-1-0-0-----------------0-|--3---3-0---3---3----0---0-2-2-|----------------2-2-0-----0-0-2---|-----------------------4-------|----------------------4-----------|-------------------------------|------------------------0---------|
------------0-2----------2-1-2-4-|--5-7-9-10---------5-10-------|------0-2-3----------------------|------------------------------|--2-3------------------0---------|-----------------0------------|---------------------0-----------|---------------0--------------|-------------------0-------------|-------------0----------------|-----------------0---------------|-----------0------------------|
---12-12-12-12-12---11-11-11-11-11---10-10-10-10-10---|---------------10---------------10---------------10---|---------------0----------------0----------------0----|---------------0----------------0----------------0----|---------------0----------------0----------------0----|---------------0----------------0----------------0----|
---9-9-9-9-9----7-7-7-7-7----5-5-5-5-5---4-|--4-4-4-4--------------------|-----------10-----------10-----------------|-----------------------------|-----------0------------0------------0-----|--------0------------------0-|-----------0------------0------------0-----|--------0--------------0-2---|-----------0------------0------------0-----|--------0------------0-------|-----------0------------0------------0-----|--------0----------0---------|
-----------------------------------|----------------------------|-----------------------------------|----------------------------|---2-2-2-2-3-2-2-0-0-----------0---|----------------------------|---------------------2-2-0-0-2---2-|---2-0-----0-0--------------|-----------------------------------|-------4----------------0-2-|-----------------------------------|---------0------------0-----|
-----------------------------------|---------------------------|-----------------------------------|---------------------------|---------0-1-0-0---------0-------0-|-----0---------------------|-----0-2---------3-3-0-3-------0---|---3---3-0---0---0---0---0-|---4-------------------------0-----|-----------4---3---4---3---|---------------------------0-------|---------------------------|
------------4---------------|----------------2-4-0-4-0---|----------2---2-------------|--------------2-----------3-|--------2-------2-----------|------------0---------------|------------------0---------|----------0-----------------|---4----------------4-------|----------------------------|----------------------3-----|----------------------------|
---4-----4-----4---0-4-0---4-----2-|------------2----2------|-----3-2---2-3---3-------3---3-2---|---2--------2----2------|-----------------------------------|------------2----2----0-|-----------------------------------|------------------------|-----------------------------------|-----4------------------|-----------------------------------|------------------------|
-----2-4-0-4-0---4-----4-----4---0-|---4-0---4-----2----------2-2-2-|---2-----------3---3-2---2-3---3---|-------3---3-2---2--------2-2-2-|-----------------------------------|--------------------------2-2-2-|-----------------------------------|--------------------------0-0-0-|-----------------------------------|-------------------4------3-3-3-|-----------------------------------|--------------------------------|
----2--2-------------------|--------2----2--2-------|----2--2-------------------|--------1----1--1-------|----2--2-------------------|--------0----0--0-------|----0--0-------------------|--------0----0--0-------|----3--3-------------------|------------------------|----------6--4--3--2--1--0-|-------------------6--4-|
----------------2----2--2-|----2------------------------|----------------1----1--1-|----1------------------0-----|----------------0----0--0-|----0-----------0--------3-2-|----------------0----0--0-|----0-------------3-2--------|--------------------------|-----------------------------|----3--2--1--0------------|---------4-3-2---------------|
----2-----------------------|--------------------2-2-2-|----2-----------------------|--------------------2-2-2-|----2-----------3-2-0-------|--------------------2-2-2-|----2------------------2--0-|----------0---------0-0-0-|----------------------------|----4--3-----4------4-4-4-|---------2-1-0--------------|--------------------3-3-3-|
----2--------------5-5-5-|----5--5--5-----4--5--5--5-|----2--------------5-5-5-|----5--5--7--5--4--5--5--5-|----2--2----3------5-5-5-|----5--5--5-----4--5--5--5-|----0--0----0------0-0-0-|----0--0--------0--0--0--0-|----4--4-----------7-7-7-|----7--7--------6--7--7--7-|----3--3----4------6-6-6-|----6--6--------5--6--6--6-|
----5--0--4--5--5----5-5-5-|----5--2-2-2--3-3-3--5-5-5--5-|----7-----4--5--5----5-5-5-|----5--2-2-2--3-3-3--5-5-5--5-|----5-----4--5--5----5-5-5-|----5--2-2-2--3-3-3--5-5-5--5-|----------0--0--0----0-0-0-|----0--0-0-0--0-0-0--0-0-0--0-|----------6--7--7----7-7-7-|----7--4-4-4---------7-7-7--7-|----------5--6--6----6-6-6-|-------3-3-3--4-4-4--6-6-6--6-|
----5-----0--4--5--------|-------4--5--5----5--5----|----5--7-----4--5------7-|----5--4--5--5----5--5----|----5--------4--5--------|-------4--5--5----5--5----|----0--------0--0--------|-------0--0--0----0--0----|----7--------6--7--------|-------6--7--7----7--7--7-|----6--------5--6--------|-------5--6--6----6--7----|
----------------------------0-|----0--0------------------------|-----0--0-2-0---------------0-|----0--0--------------0---------|---3----------3--2----0-----0-|----0--0-------1-3--3---3-1--0--|-------------------------2----|-------------0------------------|------------------------------|--------------------------------|------------------------------|----------5---------------------|
-----------5--5--5---------|--------------------------2--|-----------5--5--5---------|--------------------------2--|-----------5--5--5---------|---1--1-3-1---------------2--|-----2--0----------------3-|------------3--2----0-----0--|-----------------------3---|-----------------------4-----|--------------------3------|-----------------------------|
---2--2-------------------------|---------------------------|---2--2----------0--------------|---------------------------|---2--2------1-3---3-1-0--------|-------3--1--1-------------|---0--0----0-------------2-0----|----------------3--3--2----|--------------------------------|---------------------------|---------5----------------------|----3----------------------|
----------2-2-2--3-3-3--5-5-5-|-------3--3-------2------|----------2-2-2--3-3-3--7-7-7-|----5--5--5----3--2------|----------2-2-2--3-3-3--5-5-5-|-------3--3-------2------|----0-----0-0-0--0-0-0--0-0-0-|------------------0------|-------4--4-4-4---------7-7-7-|-------5--5-------4------|----------3-3-3--4-4-4--6-6-6-|-------4--4-------3------|
----3-3-3--4-4-4-4--2--1--2-0----|--------------2-2-2--2--2-|----3-3-3--1-1-1-1--------1------|----3---------2-2-2--2--2-|----3-3-3--0-0-0-0---------------|--------------2-2-2--2--2-|----0-0-0--0-0-0-0---------------|--------------0-0-0-------|-----------0-0-0-0---------------|-------4------4-4-4-------|----4-4-4--0-0-0-0---------------|--------------3-3-3-------|
--------------------------|----2-2-2--2---------------|--------------------------|----2-2-2--2---------------|--------------------------|----2-2-2--2---------------|---------0-----0-3-0------|----0-0-0----------0-----0-|------3-----4---------4---|----4-4-4-------3-----4----|--------------------------|----3-3-3------------------|
-------------4-4-4--4--4----|----------------------------|-------------2-2-2--2--2----|----------------------------|-------------2-2-2--2--2----|----------------------------|---3-0-------0-0-0----------|----------0-3-0-----0--2--1-|--------4----4-4-4--------3-|----5--4---------4----------|-------------3-3-3----------|----------------------------|
-------------------------|--------2-2-2--2----------|-------------------------|--------1-1-1--1----------|------------1--0---------|--------0-0-0--0------0-3-|----2----0----------2--0-|--------0-0-0-------------|-------------------------|--------0-0-0-------------|-------------------------|--------0-0-0-------------|
-----------2-----------------|----2------------------4--4-|-----0-----2-----------------|----1------------------2--2-|---2----0--2--------2-0-2----|----0--------0---0-----2--2-|-----------2------2--------2-|----0------0---3----0-----0-|-----------2-----------------|----0------------------4--4-|-----------2-----------------|----0-----------------------|
---4-4--4--4-----------------|--------------------------|---2-2--2--2-----------------|--------------------------|---2-2--2--2-----------------|------------------------1-|---0-0-----------0-----0-3-0-|-------0--2--1--2----0----|---4-4--------3-----4--------|----4---------------------|-----------------------------|--------------------------|
---------------2--2--2-2-2-|----2-----------------2----|---------------1--1--1-1-1-|----1-----------0-----2----|------0--------0--0--0-0-0-|----0-----0-3-2----0--2----|---------2-----------0-0-0-|----------------------2----|---------------------0-0-0-|----------------------2----|------------0--------0-0-0-|----------------------2----|
-----------------------------|-----------2-2-2--4----4---|-----------------------------|-----------2-2-2--2----2---|-------2-0-2-----------0-----|-----------2-2-2--2----2---|-----2--------2-----------3--|-----------0-0-0-----------|--------------------0--------|---5--4----3-3-3-----------|-----------------0-----------|---------------------------|
---5----4--2--0-----------|-----------------4--2--0--|-----------------4--2--4--|--------------------------|-----------------3--------|--------------------------|-----------------4--------|--------------------------|-----------------2--------|--------------2-----------|--------------------------|---6----4--2--------------|
---------------------------|-----------0-2-4-5-4-2-4-2--0----|---3--2--0--2--------------|-----0-2-3---------------------3-|------1-----------------0--|---------------------------------|------2-----------------0--|---------------------------------|------0-----------------0--|---------------------------------|---------------4--2--1--0--|---------------------------------|
---------------2-0-4-0----0-4-0----0-4-|---0-------2-2-2--3-3-3--5-5-5-|---2-0---0-2-3---------3--------3------|-----3-----2-2-2--3-3-3--7-7-7-|-------3-------------------------------|-----------2-2-2--3-3-3--5-5-5-|---------------------------------------|-----------0-0-0--0-0-0--0-0-0-|---------------------------------------|--------4--4-4-4---------7-7-7-|---------------------------------------|-----------3-3-3--4-4-4--6-6-6-|
-------3--3-------2------|----3-3-3--4-4-4-4--2--1--2-0----|----5--5--5----3--2------|----3-3-3--1-1-1-1--------1------|-------3--3-------2------|----3-3-3--0-0-0-0---------------|------------------0------|----0-0-0--0-0-0-0---------------|-------5--5-------4------|-----------0-0-0-0---------------|-------4--4-------3------|----4-4-4--0-0-0-0---------------|
--------------2-2-2--2----|-------------------------5-5-5-|----3---------2-2-2--2----|------------0-2-3--2--0--5-5-5-|--------------2-2-2--2----|--------1-3--------------5-5-5-|--------------0-0-0-------|------0------------------5-5-5-|-------4------4-4-4-------|-------------------------5-5-5-|--------------3-3-3-------|----5--------------------5-5-5-|
----5--5----------------------|----5-5-5--5----------------|----5--5----------0-2-3--2--0-|----5-5-5--5--------------0-|----5--5--------3-------------|----5-5-5--5-----------3----|--------------5---------------|----5-5-5-----------5-------|------------5-----------------|----5-5-5--------5----------|----------5-------------------|----5-5-5-----5-------------|
-----------------0-0-0--0-----|-------------------------------|--------2--0-----0-0-0--0-----|---------------0-0-4-0--0------|--------------3--3-3-3--3-----|---------0-2-3---------------3-|-----------------4-4-4--4-----|-------0-----------------------|------0----------0-0-0--0-----|-----0-------------------------|----0------------0-0-0--0-----|---0---------------------------|
---------------------------|------------2-2-2--2--------|---------------------------|------------2-2-2--2--------|------------0------0----0--|------------2-2-2--2--------|----------0----------------|---3--0-----0-0-0-----------|--------3------------------|---------4--4-4-4---------0-|------0--------------------|------------3-3-3-------0---|
-----------------------2----|----------------------2-2-2--|-----------2--0--0-----1----|----------------------2-2-2--|-----0-2-3----------3--0----|----0--2--0-----------2-2-2--|---0-------------------0----|-------------3--0-----0-0-0--|-----------------------0----|-------------------4--4-4-4--|----------------------------|----------------------3-3-3--|
---2--0-------------------|------2-2-2--2--------------|---2----------------------|------3-3-3--3--------------|---2----------------------|------5-5-5--5-----------0--|---------------2--0-------|------4-4-4--------0--2-----|---------4--3----------4--|---2--2-2-2-----4-----------|--------------------------|----------------------------|
----------------0-0-0--0--0-|---2-4-5-9----7-9-7--5-8-5--4-|----------------2-2-2--2--3-|------------------------------|-----2----0-----3-3-3--3--0-|------------------------------|-------------2--2-2-2-----0-|------------------------------|---0------------0-0-0-----0-|------------------------------|--------------------------0-|------------------------------|
---7-4----5----------------2-|---2-2----3------5-5-5--5-|--------7---7--7--6--------2-|---2-2----3------5-5-5--5-|---------------------8--7--2-|---2-2----3------5-5-5--5-|---------------------------0-|---0-0----0------0-0-0--0-|---------------------------4-|---4-4-----------7-7-7--7-|---------------------------3-|---3-3----4------6-6-6--6-|
----5--5--0--4--5--5--5--5-|-------4--5--5----5-5-5--5--|----5--7-----4--5--5--5--7-|----5--4--5--5----5-5-5--5--|----5--5-----4--5--5--5--5-|-------4--5--5----5-5-5--5--|----0--------0--0--0--0----|-------0--0--0----0-0-0--0--|----7--------6--7--7--7----|-------6--7--7----7-7-7--7--|----6--------5--6--6--6----|-------5--6--6----6-6-6-----|
----2-2-2--3-3-3--5-5-5--5--5-|----2--0--4--5---------0-|----2-2-2--3-3-3--5-5-5--5--5-|----------4--5------7----|----2-2-2--3-3-3--5-5-5--5--5-|----------4--5-----------|----0-0-0--0-0-0--0-0-0--0--0-|----------0--0-----------|----4-4-4---------7-7-7--7--7-|----------6--7-----------|----3-3-3--4-4-4--6-6-6--6--6-|----------5--6-----------|
----4--5--5----5--5--------|------------------------0--0--|----4--5--5----5--5--------|--------0---------------0--0--|----4--5--5----5--5------5-|----5-7-----------0-----0--0--|----0--0--0----0--0----7---|----------7--6-------2--------|----6--7--7----7--7--7-----|------------------------------|----5--6--6----6--7--------|------------------------------|
---0--------------------------|---------5--5--5------------|---0--------------0-----------|---------5--5--5------------|---0-------1-3--3---3-1--0----|---------5--5--5---------1--|---------0--------------------|---2--0----------------3----|------------------------------|---------------------3------|------5-----------------------|------------------3---------|
-----------------------2--2--2-|------------------------------|-----------------------2--2--2-|------------0-----------------|---1-3-1---------------2--2--2-|----------3---3-1-0-----------|---------3--2----0-----0--0--0-|--------5-----------2-0-------|--------------------4----------|------5-----------------------|-------------------------------|----5----------------------3--|
--------------------------|---2-2-2--3-3-3--5-5-5--0--3--|--------------------------|---2-2-2--3-3-3--7-7-7-----5--|---3--1--0----------------|---2-2-2--3-3-3--5-5-5-----3--|------------3--2----0-----|---0-0-0--0-0-0--0-0-0--------|-----------------------4--|---4-4-4---------7-7-7-----5--|--------------------------|---3-3-3--4-4-4--6-6-6-----4--|
---3-------2------3-3-3--|---4-4-4-4--2--1--2-0----------|---5----3--2------3-3-3--|---1-1-1-1--------1------3-----|---3-------2------3-3-3--|---0-0-0-0---------------------|-----------0------0-0-0--|---0-0-0-0---------------------|---5-------4-------------|---0-0-0-0------------------4--|---4-------3------4-4-4--|---0-0-0-0---------------------|
-------2-2-2--2----------|-----------------0-----0--|-------2-2-2--2-------3--|---2--3----2--------4-----|-------2-2-2--2----2-----|--------------2-----------|-------0-0-0-------------|--------------------------|-------4-4-4-------------|------4-------------------|-------3-3-3-------------|--------------------------|
-------------------------|-----0-0-0--0-------------|-----3--3--2--2--2----0--|-----0-0-0--0-------0-----|--------0----------------|-----0-0-0--0----0-----4--|--------0----------------|-----0-0-0----------------|-------------------------|-----2-2-2----------------|-------------------------|-----0-0-0----------------|
---------------------------|---------------------------|-------0--------3--2--3----|----2--0--------0----------|---5-7---------------------|----------3--2----3---2----|----------7----------------|---------------------------|---------------------------|---------------------------|-------------0-------------|---------------------------|
----2-2-2--2----------------|-----------0-----0-------|----2-2-2--2-------3--2--3--|-----2--------4-------3--|----2-2-2--2----2-----------|--------2----------------|----0-0-0-------------------|-------------------------|----4-4-4----------------4--|-------------------------|----3-3-3-------------------|-------------------------|
------------------------0-0-|---0--0--0------------------|---2--0-----0-2-0-------0-0-|---0--0--0--2--0--------0---|---------4---------3----3-3-|---3--3--3--------3--2----3-|------------------------4-4-|---4------------------------|------------------------0-0-|---0------------------------|----------------------------|------------------------2---|
-----------2-2-2--2--2----|-----------------------2-2-2-|-----------2-2-2--2--2--0-|-----------------------1-1-1-|------2----2-2-2--2--2----|----3--2--0--3-2----0--0-0-0-|-----------2-2-2----------|-----------------------0-0-0-|-----------2-2-2----------|-----------------------0-0-0-|-----------2-2-2----------|-----------------------0-0-0-|
----2----------------------|------------------------------------|----1--------------0-2-0---|--------0---------------------------|----0----2--3------------3-|------3---3-2------2-3-2-0--0-2-0---|---------0--0--------------|----------------------------------2-|---------4-----------------|------------------------------------|---------3--4--------------|------------------------------------|
-----------------5-5-5--5----|----------------------------|-----------------7-7-7--7----|---------------------0------|--------0--------6-6-6--6----|----------0--2--3------3-2--|------2---2-0----7-7-7-------|----0--2--------------------|-----------------5-5-5-------|----------------------------|---------------------------0-|----------------------------|
------------------------------------|--------------4-4-4--4--4-4-4--|------------------------------------|--------------6-6-6--6--6-6-6--|---2-3-2-0------0-2-0------0--------|--------------5-5-5--5--5-5-5--|----------------------2--2---2-0----|---0-2-0------6-6-6--6--6-6-6--|------------------------------------|---------4----4-4-4--4--4-4-4--|------------------------------------|-------------------------------|
---4------------------------------|------------------------------5-5-5-|---6--0-2-0--------0--------------|------------------------------7-7-7-|---5--------3----3---3-2------2-3-|---2-0--0-2-0--------0--------6-6-6-|----------------------------------|--------------2----2---2-0----7-7-7-|----------------------------------|------------------------------5-5-5-|----------------------------------|------------------------------------|
----5---------------------|------------------------------------|----7---------------------|-----0------------------------------|----6-----------0--2--3---|-------3-2--2-3-2-0------0-2-0------|----------0--2------------|-------------------------------2--2-|--------------------------|------------------------------------|-------0------------------|------------------------------------|
-----------------------4-4-4--4--|---4--4--4--4--4--4---2---0---|-----------------------6-6-6--6--|---6--6--6--6--6----5---3---2-|---0-------------------5-5-5--5--|---5--5--5--5--5--------------|-----2-0----0-2-0------6-6-6--6--|------------------------------|------------------4----4-4-4--4--|------------------------------|---------------------------------|------------------------------|
-----------------------------------|----------------2-2-2--2--0--|---3-0-2---0-2-3-0-2---0-----------|----------------1-1-1--1-----|---------3-----------3---2-3-0-2---|---0-2-3--2--0--0-0-0--0-----|---------------------------------3-|----------------0-0-0--------|-----------------------------------|----------------0-0-0--------|-----------------------------------|----------------0-0-0--------|
---4-0-2---0-----------------------|----------------------------------|---------3---2-3-0-2---0-2-3-0-2---|---0---------------0--------------|---------------------3-----------3-|-----2-3-0-2---0-2---3--0-0-------|-----------------------------------|-------------3--------------3-2-0-|-----------------------------------|----------------------------------|-----------------------------------|----------------------------------|
------2-2-2--3-3-3--5-5-5--0--|---3--3-------2------3-3-|------2-2-2--3-3-3--7-7-7-----|---5--5----3--2------3-3-|------2-2-2--3-3-3--5-5-5-----|---3--3-------2------3-3-|------0-0-0--0-0-0--0-0-0-----|---0--0-------0------0-0-|---4--4-4-4---------7-7-7-----|--------------4----------|------3-3-3--4-4-4--6-6-6-----|---4--4-------3------4-4-|
---3--4-4-4-4--2--1--2-0-------|----------2-2-2--2--2--2--|---3--1-1-1-1--------1------3--|----------2-2-2--2--2--2--|---3--0-0-0-0------------------|----------2-2-2--2--2--2--|---0--0-0-0-0------------------|----------0-0-0-----------|------0-0-0-0------------------|---4------4-4-4-----------|---4--0-0-0-0------------------|----------3-3-3-----------|
---2-------------------------|------------0--0--0--------|---2-------------------------|------------0--0--0--------|---2------0-2-0------------3-|----3--3----0--0--0------0-|--------2-------2-1-----1----|---------------------0-2---|-----------------------------|---------------------------|---------------------4-------|---------------------------|
--------------------------|---0--0--0--------------------|--------------------------|---0--0--0--------------------|----------------1----1----|---0--0--0--------------------|---2-0--------------------|--------------0-2-0-----------|-------4-----4------------|------------4-------4-3-----3-|----------2---------------|-------------------------0----|
-------------------------|---------------2-2-2--2--2-|-------------------------|---------------2-2-2--2--2-|-----------------0--2--3-|----5----3--2--2-2-2--2--2-|----4----4----3----------|---------------0-0-0-------|-------------------------|---------------4-4-4-------|-------------------------|---------------3-3-3-------|
------------------------------|---------0--0--0------------|------------------------------|---------0--0--0------------|--------0-2-0------------3--3-|----3----0--0--0------0-----|------2-------2-1-----1-------|------------------0-2---2-0-|------------------------------|----------------------------|-------------------4----------|----------------------------|
----------------------0--|---0--0-----------------------|----------------------0--|---0--0-----------------------|------------1----1----0--|---0--0---------------------0-|-------------------------|-----------0-2-0--------------|---4-----4---------------|---------4-------4-3-----3----|------2------------------|----------------------0-------|
-------------------------|-------2--2--2-2-2--2-----|-------------------------|-------2--2--2-2-2--2-----|------0------------------|-------2--2--2-2-2--2-----|-----------3--0--------0-|-------------0-0-0--0-----|-----------------4--3----|----4--------4-4-4--4-----|-------------------------|-------------3-3-3--3-----|
-------------2-----------2-----|------2-----------------0---|-----------2-----------2-------|----------------------0-----|-------0-3-----------3---------|---------0--2--0----2-------|-------------------3-----------|------------------2---------|-------------------------------|----------------------------|-------------------------------|----------------------------|
-----------0--------0-------|-----------------------------|---------0------------------|-----------------------------|-------2------------------0-|--------------------------0--|-----1-----------------2----|----2--0-2-0--------0--2-----|----------------------------|--------------2--4-----------|----------------------------|-----------------------------|
--------------------------|------0-0-0--0--0--0--------|--------------------------|------2-2-2--2--2--2----2-3-|---2--0--0----------------|------3-3-3--3--3--3--------|------------2--2--2----0--|------2-2-2--2--2--2--------|--------------------------|---4--4-4-4-----------------|--------------------------|----------------------------|
-------0--------0--------0--|------0--5--4--2-4-2----0----|---2-3----2--3-----2--3-----|---2-----------------------3-|----------------------------|-----------------------------|----------------------------|-----------------------------|-------0-----------------0--|-----------------------------|----------------------------|---------------0-------------|
----2-2-2--2--2--------0---|---0-2-----0--2-----0--2----|----3-3-3--3--3------4---4-|--------4--------4--------4-|----0-0-0--0--0------------|----------------------------|----0-0-0------------------|----------------------------|----0-0-0------------------|-----2-----------------2----|----0-0-0------------------|----------------------------|
-------7--5--4----4--4--4-|---4-4--4--4--4------------|----5-------------5--5--5-|---5-5--5--5--5------6-7-6-|------------------------2-|---2-2---------------------|------------------6--6--2-|---2-2--6--6--6------------|------------------------2-|---2-2---------------------|-------------2----------2-|---2-2---------------------|
-----4--------4--------4----|----4--9--7--5----4--2----|---7----6--7-----6--7-----6-|------------------------2-|----------------------------|------------------------3-|----------------------------|------------------------4-|-----4-----------------4----|------------------------4-|----------------------------|--------------------------|
--------------------7--6--7-|----7-5----4--2--0----4-4-|----2--2-2-2--2--2----------|----------------------5-5-|----3--3-3-3--3--3----------|----------------------2-2-|----4--4-4-4--4--4----------|----------------------2-2-|----4--4-4-4--4--4----------|----------------------2-2-|----------------------------|----2-----------------2-2-|
---4--4--4--5--4--5--2-5-2--|---0-----2-2-2--2--2----2--|---5--5--5------------------|------3--3-3-3--3--3----3--|---2------------------------|---------0-0-0--0--0----0--|---2--6--6------------------|---------0-0-0----------0--|---2------------------------|---------0-0-0----------0--|---2-----------------0------|---------0-0-0----------0--|
-------------------------------|--------------------------------5-5-|-----0-2-0--------0------------|--------------------------------7-7-|-----------3----3---3-2------2-|---3-2-0--0-2-0--------0--------6-6-|-------------------------------|----------------2----2---2-0----7-7-|-------------------------------|--------------------------------5-5-|-------------------------------|------------------------------------|
---5--5--------------------|----------------------------------|---7--7--------------------|----------------------------------|---6--6-----------0--2--3--|-----5-3-2--2-3-2-0------0-2-0----|---7-----------2-----------|-------------------------------2--|---5--------5--------------|----------------------------------|---------0-----------------|----------------------------------|
-------------------------4-4-4--4-|----4-4-4--4---------------------|-------------------------6-6-6--6-|----6-6-6--6------2-0--------0---|-----0-------------------5-5-5--5-|----5-5-5--5----5-----3----3---3-|---2---2-0----0-2-0------6-6-6--6-|----6-6-6------------------------|--------------------4----4-4-4--4-|----4-4-4------------------------|----------------------------------|---------------------------------|
----------------------------------|----------5-5-5--5-----------|----------------------------------|----------7-7-7--7-----------|---2------2-3-2-0--0-2-0--------0-|----------6-6-6--6-----------|-------------------------2----2---|---2-0----7-7-7-----------2--|----------------------------------|----------5-5-5--------5-----|----------------------------------|--------------------0--------|
-------------------------------|------------------------------------|--------------0----------------|------------------------------------|---0--2--3------3-2--2-3-2-0---|------0-2-0------0------------------|-------------------------------|------------2--2---2-0----0-2-0-----|-------------------------------|--------------------------------4---|-------------------------------|------------------------------------|
----4-4-4--4--4--4--4--4---|-----4---2---0---------------------|----6-6-6--6--6--6--6--6---|-------5---3---2-3-0-2---0-2-3-0-2-|----5-5-5--5--5--5--5--5---|-----------------------3-----------|----6-6-6--6--6--6--6--6---|-----------------------------------|----4-4-4--4---------------|-----------------------------------|---------------------------|-----------------------------------|
-----------------------------------|-------------0-------0-2-4-2-0-2-4-|-----0-------------------------0-2-|---0---0-2-3---3-2-3---------------|---3---2-3-0-2---0-2-3-2-0-2-3-----|-----3-----------------------------|---------------3-------------------|-----------------------------------|-----------------------------------|-----------------------------------|-----------------------------------|-----------------------------------|
---5-7--5--9--7--7--5--5-7-5--|---4--4--2-4-2--2--2--1-2-1-----|------------------------------|-----------------------------3--|------------------------------|--------------------------------|------------------------------|--------------------------------|------------------------------|--------------------------------|------------------------------|--------------------------------|
------2-2-2----3----5--5--|-----5-5-0-----2----3----|---2--2-2-2----3----5--5--|-----5-5-10----2----3----|------2-2-2----3----5--5--|-----5-5-0-----2----3----|------0-0-0----6----0--0--|-----0-0-0-----0----0----|------4-4-4----5----7--7--|-----7-7-14----4---------|------3-3-3----4----6--6--|-----6-6-14----3----4----|
---5--5----5-5-0-----2----|---3----5--5-------0----|----0----2------------||---5--5----5-5-10----2----|---3----5--5----7-------|----8----3------------||---5--5----5-5-0-----2----|---3----5--5------------|----8----7------------||---0--0----0-0-0-----0----|---0----0--0------------|----7----6------------||---7--7----7-7-14----4----|--------7--7------------|----5----5------------||---6--6----6-6-14----3----|---4----6--6------------|----4----3------------||
Please rate this tab:
x1.0