Paco De Lucia - Guajiras De Lucia tab

-----------------------------------------------------------------------------
			Guajiras de Lucia - Paco de Lucia
-----------------------------------------------------------------------------
Tabbed By : David Vega Gonzalez alias  El Padrino 

Tuning: EADGBe

E||----0-----2-----3-----0-----2-----3---|B||------2-----2-----2-----2-----2-----2-|G||--------------0-----------------0-----|D||--------2-----------------2-----------|A||--1-----------------1-----------------|E||--------------------------------------|
----2-----2-----2-----2-----2-----2---|---2-----4-----5-----2-----4-----5---|------3-----3-----3-----3-----3-----3-|-----3-----3-----3-----3-----3-----3-|--------------4-----------------4-----|-------------2-----------------2-----|--------4-----------------4-----------|-------4-----------------4-----------|--2-----------------2-----------------|--2----------------2-----------------|--------------------------------------|-------------------------------------|
----4-----4-----4-----4-----4-----4---|---4-----5-----7-----9-----9-----9---|------3-----3-----3-----3-----3-----3-|-----3-----3-----6-----6-----6-----6-|--------------4-----------------4-----|-------------7-----------------7-----|--------2-----------------2-----------|-------2-----------------6-----------|--------------------------------------|-------------------------------------|--0-----------------0-----------------|--0----------------0-----------------|
--9p7p5-----------5---5-7-|--9-7-5-------------------|--------5-------5---9-----|--------9-7-5-7-9-7-5-----|----------6---6-----------|----------------------7-6-|------------7-------------|--------------------------|--------------------------|--------------------------|--5-----------------------|--------------------------|
--------------------------|---------5--------5----0--|----5---------------------|-------5--------5---------|--7---7-6-----------------|-----6--------6-----------|----------9-7-6-----------|--------------------7-----|----------------9-7-5-----|-----------7--------------|----------------------9-7-|--5-----------------------|
----0-----0-----0-----0-----0-----0---|--0------0-----0-----0-----0-----0---|------3-----3-----3-----3---3-----3---|--3--------2-----2-----2-----2-----2-|--------------------3---------3-----3-|--3----------------2-----------2-----|--3-----5-----7-----------7-----5-----|--7p5p3------2-----------2-----------|--------------------------------------|--------0----------------------------|--------------------------------------|-------------------------------------|
----0-----0-----0-----0-----0-----0---|-------------------------------------|------0-----0-----0-----0-----0-----0-|---------2-----2-----2-----2-----2---|--------------------1-----------------|-----------2-----2-----2-----2-----2-|--0-----2-----4-----------4-----2-----|--4h2h0------------------------------|--------------------------------------|-------4-----------4-----------4-----|--------------------------------------|-------------5-----------4-----------|
------------------------------0-------|----------0-0-------0-0-----|----2-----------1-----------0---3h2h0-|--------2---------2---------|------2---2-------2-------1-----------|------2---------2-----------|------------4-----------0-------------|----------------------4h-3--|--------4-------------2---------------|--0---------4---------------|--2-----------1-----0-----------------|----------------------------|
--------------------|-----0-------0-------0---|-----------------------|-----0--2--3h-0-----|-----2-------2-------2---|-----0--2--3h2h0-----0-|-----1--1--1-----1--|-----2-------2-------2---|-----1--1--1-----2h1---|-----0--0--0--------|---------2h1---4-2h------|-----0--0--0-----------|--------------------|--0----4-----------4---4-|-----------------------|--0--------0--------|-------------------------|--0--------0-----------|
----0---------------------|--------------------|----------------|----2---------------------|--------------7/-9/-|--10------------|------2---------4h2-------|-----------7--------|--9-------------|------------4h2-----4h2---|--------6-----------|--7-------------|--0-----4h0-------------4-|-----7--------------|--0-------------|--------------------------|--0-----------------|--9-------------|
------------------------|-----------------------7-9-10-|------------------------|----------------7-9-10--------|------------------------|------------7-9---------------|------------------0-----|-----7-9-11-------------------|----4h2-0---0-2-4---7-9-|--11--------------------------|----------4-------------|------------------------------|
--12h10-9-------------------------|-----------------------|--------------5--|----------12-10-9-----------------|-----------------------|------------7----|------------------11-9------------|-----------------------|-----------6-----|-----------------------12-11-9----|-----------------------|--------7--------|--0----------------------------12-|--11h-9----------------|-----0-----------|----------------------------------|---------12--10h-9--7--|--5--------------|
--------------------|------------------|--------------------|--------------7h-9--|------------6--7--|--------------7/-9--|-----------7--------|---------7--------|-----------7--------|--------6-----------|------------------|--------6-----------|-----7--------------|--0---------------|-----7--------------|--0-----------------|------------------|--0-----------------|
---------5--------5----0--|--------------------|--0------0--------0----0--|-------5--------5---------|--------------2--3--|-------2--------2---------|-----6--------6-----6-----|--2--2--2--4--------|-----2--------2-----------|-----------7--------------|--2--------2--------|--------------------2-----|--0-----------------------|--0-----------------|--0--------4--------------|--------------------------|-----------4--------|--------------------------|
-----0--2--2p-0-----|--0--------0-----0-----|--------------------|--3--------3-----3--|---------2-------2-----|--------------4--5--|--4-----------------|-------2---------2-----|--4--4--4--6--------|-----------0--------|--------------2--------|--4--------4--------|--------------------|--0--4--------------0--|--2-----------------|--4-----------------|-----------------------|-----------6--------|
-----------------------|---------------------|-----------------------|--7--------7-----7-----|-----7--11--9p-7-----|--7--------7-----7-----|---------8-------8-----|--7---------------9--|---------8-------8-----|-------9---------9-----|--8------------------|-------9---------9--0--|-----9-----------------|--7------------------|-----9-----------------|--7-----------7-----9--|---------------------|--7-----------7--------|
-----------------2--|--4--------4-----------|--4-----4-----------|--2--2--2--3h-5-----|---------6-------6--7--|--------6-----9p-7--|--1--------2--------|-------6---------------|--------6-----7-----|--3--------4--------|-----6-----------------|-----6--------7-----|--4--------2--------|--4-----------4--------|--4-----------0-----|--------------------|-----------------------|-----------7--------|
---------------------------|-------------------5--|--7-----7------------|--9-----------9-----9------|--5--------5-6h-8-----|--------9-----9--10--|-----------10-------10-----|---------4---5--------|--------7------------|--------11----------11--0--|-------6--------------|-----------9---------|-----11----------9---------|-----7-------5--------|-----7---------------|--9------------------------|--0-------------------|--0------------------|
--7-----7-----7p-5--|--7--------7-----7-----|--7-----------7--10--14--|--------9-----6-----|---------9-------9-----|-------7-9-10------------|--------7-----5-----|-------9---------------|-----9-------------------|-----9--------7-----|-----------------------|-------------------------|--7--------5--------|-----7--------------9--|-------------------------|--------------------|--0-----------0--------|--0----------------------|
--12p-10--9------9--12--|--10-----------9p-7--|--------------5-----|-------------10---------|---------------------|-----------7-----7--|------------------------|---------------------|--------6-----------|------------------------|---------------9-----|-----7--------------|--0---------------------|------7--8--7--------|--0-----------------|------------------------|--0------------------|--------------------|
--4-----4--2-----2--|------------0---0-2-4-5-4-|--2p0---------------------|--5--5-----3--3-----|----------2---3-----------|------3-2-0---------------|--------------------|--------2-----------------|------------2-1-----------|--6--------4--------|------2-------------------|----------------4-2-0-----|--------------------|--0h4---------------------|----------------------4-2-|--------------------|--------------------------|--------------------------|
---------------0-----|---------------------|----------------0--|---------------------|---------------7/-9--|-------------7-----|---------------------|------------7--------|----------6--------|--------0--4-2h---4--|---------6-----------|-------7-----------|--0h-4---------------|-----6h7-------------|--0----------------|---------------------|--0------------------|-------------------|
--------------------|---------5--------5----0--||---------2-----------|--------------7h-9--|-------5--------5---------||---2h-3-----5p-3--2--|-----------7--------|-----6--------6-----6-----||*--2--------2--------|--------6-----------|-----------7--------------||*--------------------|-----7--------------|--0-----------------------||---0--------4--------|--0-----------------|--------------------------||---------------------|
-----------------0--|--2--5--4--2h4p2-0-----|---------0--------0----0---||--0-----0--2h-3-----|--3-----------------3--|--2----2--------2----------||--------------------|--0--------------------|-----2--------2-----------*||-----0--------------|--0--------------------|--0-----------------2-----*||--------------------|-----------------------|-----------4---------------||--4-----------------|-----------0-----------|---------------------------||
--3p0-----------0-2-3-5-3-|--2------2--------2----0--|------2-------2-----------|-------3--------3---------|--------0---0-------------|-----2--------2-----------|----------2---------------|--0--------4--------0-----|--0-----------------------|--------------------------|--------------------------|--------------------------|
--1p0-------------0-1-3-1-|--0------0--------0----0--|------3---------3---------|-------2--------2---------|--------4-----4-----------|-----2--------2-----------|--3-------0h3-------------|--------------------2-----|--------------------------|--0--------4--------------|--------------------------|--------------------------|
--2p0-------0-2h4p2-0-------|-------------0-------|----------------------|------3---3-----------3-2-0-|-----------1---1-----|----------1-0-------0-|--------4-------------------|-------2---------2---|--------2---------1---|----------------------------|---------------------|------3---------2-----|----------------------------|--0------------------|----------------------|--4-------------------------|-------------------3-|--1---------0---------|
---------0--------0-------|--------------------|------------------|-------2--------2---------|-----0--2--3p-0-----|---------------7--|-----2--------2-----------|-----1--1--1-----1--|------------6-----|--------------------4p-2--|-----0--0--0--------|---------7--------|--0--------4--------------|--------------------|--0---------------|--------------------------|--0--------0--------|------------------|
--------------------|---------5--------5----0--||---9h5-----------5---5-7-9-|--------------7h-9--|-------5--------5---------||-------5-------5---9-------|-----------7--------|-----6--------6-----6-----||*--------6---6-------------|--------6-----------|-----------7--------------||*----------7---------------|-----7--------------|--0-----------------------||---0-----------------------|--0-----------------|--------------------------||---------------------------|
--10-----------10-----------|--10--------7-9-10-12-10-9----10-|-----9-------9----9-------9-|-----7-9-10----------------12----|-------7---7--------7---7---|---------------------------------|----------------------9-----|---------------------------------|---------7------------------|---------------------------------|--0-------------------------|---------------------------------|
--9----------9-----12--0---||--9----------9-----9-------|----------10-------10------||----------10-------10------|--------9----------9------*||--------9----------9-------|-----11-------------------*||-----11----------------11--|--0-------------0----------||--0-------------0----------|---------------------------||---------------------------|
--9----------------9-------9-10-12-|--14p12-10----------------10----10----|----10----------10---10-12---------|-----------10----------10----14----14-|-------12----12--------------------|--------------11----11----------------|----------11-----------------------|-----------------12-------------------|--0--------------------------------|--------------------------------------|-----------------------------------|--10----------------------------------|
-------------------------------9-10-|--12p10-9--------------9--0--|--12----------------12-9-10-12------|----------10--------10-------|-----10----------10-----------------|-------------9----9----------|--------12----12--------------------|---------------11------------|-----------11-----------------------|-----------------------------|--0---------------------------------|--0--------------------------|
--9p5-----------5---5-7-9-|--10p7---0---0-12p0----0---0-|------5-------5---9-------|-------9---7--------10---7---|--------6---6-------------|-----------------------------|----------7---------------|-----------------------------|--0-----------------------|-----------------------------|--------------------------|--0--------------------------|
--10p7---0-12p0----0-10p7---0-|--------------------12--|-------9--------10--------9---|--10------------10------|------------------------------|-------------9----------|------------------------------|---------11-------------|------------------------------|------0-----------------|------------------------------|------------------------|
--11------11--10------10--|--9---------------9--|--8----------8-7--------7-|--10------10--9-------9---|--------------10-----|----------10----------9---|------11----------10------|-----------9---------|--------8-----------7-----|--10----------9-----------|-----6--7------------|-----10-----------9-------|--------------------------|--0------------------|--8------------7----------|--------------------------|---------------------|--------------------------|
--------------5-----|--4-----4--2-----2--|--0-----------2--0--|-----------7-----7--|--5--5-----3--3-----|-----------2--------|--------6-----------|--------------------|--------2-----------|-----7--------------|--6--------4--------|-----2--------------|--0-----------------|--------------------|--0-----------------|--------------------|--------------------|--------------------|
--------------0-----|--------------------|----------------------|--3--------3-----3--|--1--------1--3--1--|--0--------0----------|--------4-----------|--------2-----------|---------0---2p-0-----|-----0--------------|-----2--------------|-------0-----------3--|--------------------|--0-----------------|-----2----------------|--4-----------------|--------------------|--3----------1--------|
--0----------------------|-----------0--0--0--|---------------------0-|---------------------0-2-|--3--3--3-----------|--2p--0--------0-2-3---|-----------------1-2-----|--------------------|--------2--1-2---------|-----------0-2-4---------|--------------------|-----------------------|-----0-2-4---------------|--2-----------------|--0--------------------|--0----------------------|-----------4--------|-----------------------|
--2p-1--2--4p-2--4--|--5-----5------------0-|--2p-1--2--4p-2--4--|-----------3--------|--2-----2------0-2-3---|-----------3--------|--------------------|-----2-----1-2---------|--------------------|--1--------2--------|-----------------------|--1--------2--------|--------------------|--0--------------------|--------------------|--------------------|-----------------------|--------------------|
--5p-4--5--7p-6--7--|--9p-7--9-------------|-----------------12------|--2--------6--------|--7--------12p-10--9--|--10---------10----------|--------------------|----------------------|----------9--------------|-----------6--------|--7-------------------|------11-----------------|--0-----------------|----------------------|--0------------------10--|--------------------|-----------0----------|-------------------------|
--11t------10t------|--9t------------0-2-5-|--2p0---------------------|--10t------9t-------|--10t-----0-2-3-------|------3-2-0---------------|--11t------10t------|--9t------------------|------------2-1-4p1-------|--------9-----------|--7t------------------|--------------------2-0---|-----------------0--|----------------------|------------------------2-|--------------------|----------------------|--------------------------|
---------------0-----|--------------------|------------------|---------------------|--------------7h-9--|---------------7--|---------------------|-----------7--------|------------6-----|--------0--1-2h---4--|--------6-----------|---------7--------|--0h-4---------------|-----7--------------|--0---------------|---------------------|--0-----------------|------------------|
--------------------||-----------------------|---------------------||--------------7h-9--||------7p5h7--7p5h7--5--|-----5p-3-----5p-3---||-----------7--------||*-----6------6------6--|--------------------*||--------6-----------||*-----7------7------7--|-----6--------6-----*||-----7--------------||---0-------------------|---------------------||--0-----------------||-----------------------|--0--------0---------||
----------------------|--------------4h-2--|----------------------|-----7p5h7--7p5h7--5--|-----4p-2--4--------|-----5p4h5--5p4h5--5--|-----6------6------6--|-----2-----2--------|-----4------4------4--|-----7------7------7--|--------------------|-----6------6------6--|--0-------------------|--2--------2--------|----------------------|----------------------|--------------------|--0-------------------|
--------------2p-0--|----------------------||---4p2p0---2p0-----0-------|-----2p-0--2--------|-----3p2h3--3p2h3--3--||---------3-----3p2---3p2p0-|-----0-----0--------|-----2------2------2--||*--------------------------|--------------------|--0-------------------||*--0-----------------------|--0--------0--------|----------------------||---------------------------|--------------------|----------------------||---------------------------|
-----------------------||----------------------||------4p-2-----4p-2--|-----2p1h2--2p1h2--2---||-----3p2h3--3p2h3--3--||------3--------3-----|-----1------1------1--*||-----2------2------2--||*-----4--------4-----|-----3------3------3--*||-----4------4------4--||*-----------2--------|--4--------------------||--5-------------------||---------------------|-----------------------||----------------------||---0-----------------|
-----0h2p0--0h2p0--0---||--------------------|----------------------|-----2------2------2---||-----5p-3-----5p-3--|-----2h3p2--2h3p2--2--|-----2------2------2--*||-----2--------2-----|-----2------2------2--|----------------------*||-----------4--------|-----2------2------2--|--0--------------------||--------------------|--0-------------------|-----------------------||--2-----------------|----------------------|
--------------------|---------0--------0--------|-----------4p-2------|-----2p-0-----2p-0--|-------2--------2----------|-----5p-3--3-----5p3-|-----2--------1-----|-----2--------2------------|-----2---------------|-----0--------0-----|---------------------------|-----------4---------|--------------------|--0--------4--------2p-0---|---------------------|--1--------0--------|-------------------------4p|--2------------------|
-----------0--2p0-----|--------------0h2p0-------|-----------------1--|-----2p-0---------3p2-|--------0-2-3-------3p0---|--------------1-----|-----2----------------|------1-----------------1-|-----------2--------|-----2--------0-------|----0---------------------|--------2-----------|--0-------------------|--------------------------|--0h-3--------------|----------------------|--0-----------------------|--------------------|
--0--------0----------|--0----------------------|--------------------7-9-10-|---------0---4-----4--|-------------------------|--------------7-9-10-------|-------0-----------2--|-------------------------|----------7-9--------------|-----0----------3-----|-------------------0-----|----7-9-11-----------------|----------------------|-------------0-2-4---7-9-|-11------------------------|--3----------1--------|--0--2p0h2h4-------------|---------------------------|
--12p10-9-------------------------|------------------------|----------12-10-9-----------------|------------------------|------------------11-9------------|------------------------|-----------------------12-11-9----|------------------------|-------------------------------12-|--11----11h12-9----9h11-|--0-------------------------------|------------------------|
---------------------|-----------0--0--0--|---------------4-2-0-|-----------------0-2-|--3--3--3-----------|--2p--0--------------|-------------1-2-----|--------------------|--------2------------|---------2-4---------|--------------------|---------------------|--7------------------|--2-----------------|--0------------------|--0------------------|-----------4--------|---------------------|
--2h4p2-0--2--4p-2--4--|--5-------4t------|--5t------10t------|--------------3--------|--2-------5t------|--5t------9t-------|--------------4--------|--2-------4t------|--6t------10t------|--0--------------------|----------6t------|--7t------9t-------|--------------2--------|--0------------0--|----------------0--|-----------------------|-------0----------|-------0-----------|
--12t-----------||--10t-----------||--9t------------||--11t-----------||----------------||----------------||
| / slide up | \ slide down | h hammer-on | p pull-off | ~ vibrato | + harmonic | x Mute note =============================================================================
Tap to rate this tab
 
# A B C D E F G H I J K L M N O P Q R S T U V W X Y Z