Paganini Nicolo - Caprice 24 tab

Nicolo Paganini � Caprice No. 24
--------------------------------

one of the most difficult classical guitar pieces ever.
you must listen to song and play. lot of sweep picking involved here.
good luck!


e|--------------------------------|B|--------------------------------|G|-----------------9--------------|D|--7---7-7-10-9-7----------------|A|---------------------7-7-11-9-7-|E|--------------------------------|
---------------------------|---------------------------|-----------------9---------|--7---7-7-10-9-7-----------|----------------------7----|---------------------------|
--------------------------------|--------------------------------|-----------------9--------------|--7---7-7-10-9-7----------------|---------------------7-7-11-9-7-|--------------------------------|
---------------------------|---------------------------|-----------------9---------|--7---7-7-10-9-7-----------|----------------------7----|---------------------------|
--------------------------------------|--10---10-10-11-10--------------------|-------------------12-10---7-7-10-9-7-|--------------------------------------|--------------------------------------|--------------------------------------|
--------------------------------|--8---8-8-10-8------------------|---------------10-9---5-5-9-7-5-|--------------------------------|--------------------------------|--------------------------------|
------------------------------|--6-------------5-------------|------4-4-7-5-4-----2-2-5-4-2-|------------------------------|------------------------------|------------------------------|
---------------------------------------------|---------------------------------------4---5-|---------------------------------------------|--3--------------------------------------2---|---------------------------------------------|---------------------------------------------|
--12p-----------8----------------7p--4-------|-------------------10-------------------5----|-----------------------9-------------------4-|--------------------------10--7--------------|---------------------------------------------|---------------------------------------------|
--12p--8--------------------------|----------10----------------------|--------------9---------9---------|-----------------10--7------------|-----------------------------7----|----------------------------------|
--12p--8----------------7p--4--------------|----------10-------------------5-----------|--------------9-------------------4--------|-----------------10--7---------------6-----|----------------------------------------7--|-------------------------------------------|
--12p--8--------------------------|----------10----------------------|--------------9---------9---------|-----------------10--7------------|-----------------------------7----|----------------------------------|
--17p--12----------------------------------10-|-----------14--------------------------10-----|---------------14------------------10---------|-------------------14--11------12-------------|---------------------------12-----------------|----------------------------------------------|
--15p--10-------------------------------8--12-|-----------12------------------------8--------|---------------12-----------------9-----------|-------------------12--9------10--------------|--------------------------10------------------|----------------------------------------------|
-------------------------12------------------|--12-------------------------13--------------|------13--10---------------------14----------|--------------12--9------------------14------|---------------------11------------------15--|---------------------------------------------|
---------------------------------------------|---------------------------------------------|---------------------------------------------|---------------------------------------------|--14-----------------------------------------|---------------------------------------------|
---------------------------------------------|---------------------------------------------|--2--------------------------------------1-2-|---------------------------------------------|---------------------------------------------|---------------------------------------------|
--------------------------------|------------0-1-3-5-4-5-4-5-----|--2-1-2-1-2---------------------|-----------------------------2--|--------------------------------|--------------------------------|
----------------------------------|------------0-1-3-5-4-5-4-5-3-1-0-|--2-1-2-1-2-----------------------|----------------------------------|----------------------------------|----------------------------------|
--------------------------------|------------0-1-3-5-4-5-4-5-----|--2-1-2-1-2---------------------|-----------------------------2--|--------------------------------|--------------------------------|
--5-4-5-4-5-3-1-0-----------0-1---|------------------3-2-3-2-3-----3-|----------------------------------|----------------------------------|----------------------------------|----------------------------------|
--3-2-3-2-3-1-0---------------0---|----------------3-1-0-1-0-1-3---1-|----------------------------------|----------------------------------|----------------------------------|----------------------------------|
--1-0-1-0-1--------------------------|------------3-1-0-5-4-5-4-5-1-0------|--------------------------------2----|-------------------------------------|-------------------------------------|-------------------------------------|
------------1p-0-----------------|---------------------------------|--4-3-4-3-4------1-2-1-2-4-2-----|---------------------------------|---------------------------------|---------------------------------|
(chicken picking) .---------------------------------------------|---------------------------------------------|---------------------------------------------|--10-----------------------------------------|---------------------------------------------|---8-----------------------------------------|
.--------------------------|--------------------------|----------------8--10--9--|--10------7--9------------|----------------6---8--7--|---8------5--7------------|
.------------------------|------------------------|-------------------9----|--10------7--6--9-------|-------------------7----|---8------5--4--7-------|
.--------------------------|--------------------------|----------------8--10--9--|--10------7--9------------|----------------6---8--7--|---8------5--7------------|
.-----------------------------|-----------------------------|--14--------------9--10--11--|----------11--12-------------|--12--------------7---8---9--|-----------9--10-------------|
.--------------------------|--------------------------|--12-------------7--8--9--|----------9--10-----------|--10-------------5--6--7--|----------7---8-----------|
. .-----------------------|-----------------------|--10---------9---------|----------9---------7--|---8---------7---------|----------7---------5--|
-------------------------|-------------------------|-----10--9---------------|--9---------6--9----7----|------8--7---------------|--7---------4--7----5----|
----------------------------17-16-15-14-------|----------------------------------------18-17-|--14------------------------------------------|----------------------------------------------|----------------------------------------------|----------------------------------------------|
-----17-16-15-14-----------------------------|-----------------18-17-16-18-17-16-18-17-----|--14-----------------------------------------|------------------------------------------14-|---------------------------------------------|---------------------------------------------|
-----17-16-15-14------------------------------|-----------------18-17-16-18-17-16-18-17------|--14-------------------------------------16---|--------------------------------------------1-|----------------------------------------------|----------------------------------------------|
-----17-16-15-14-----------------------------|-----------------18-17-16-18-17-16-18-17-----|--14-----------------------------------------|------------------------------------------14-|---------------------------------------------|---------------------------------------------|
-----17-16-15-14------------------------------|-----------------18-17-15-14-17----14-15------|--14----------------------------14-------14---|--------------------------------------------1-|----------------------------------------------|----------------------------------------------|
-----15-14-13-12------------------------------|-----------------16-15-13-12-15----12-13------|--12----------------------------12-------12---|--------------------------------------------1-|----------------------------------------------|----------------------------------------------|
-----13-12-11-10------------12-11-10-9-------|-----------------14-13-12--------------13-12-|--10----------------------9------------------|---------------------------------------------|---------------------------------------------|---------------------------------------------|
----------------------------17----------------|----------------------------------17----------|--10-9-------------------------------17p-14---|-------13-12-11-10--------------------------1-|-------------------14-11-12-------------------|----------------------------------------------|
(chicken picking)
--------------------------------11---12------|------------------6---5----------------------|-----------------------------------8----9----|---------------------------------------------|--------------------8---7--------------------|--5-----------------------5--4------------4--|
-------------------11---12------|-----6---5----------------------|----------------------8----9----|--------------------------------|-------8---7--------------------|--5----------5--4---------------|
-------------------11---12------|-----6---5----------------------|----------------------8----9----|--------------------------------|-------8---7--------------------|--5----------5--4------------4--|
-------------------11---12------|-----6---5----------------------|----------------------8----9----|--------------------------------|-------8---7--------------------|--5----------5--4---------------|
-----18--------------17----------------------|---------------------------------------------|------------------15----14--------9---10-----|---------------------------------------------|------------------------------------7----8---|--9------------------------9--10-----------8-|
-----16----15---------------------|----------------------------------|--------13----12-------8---9------|----------------------------------|-------------------------6---7----|--7--------------7--8----------8--|
-----7---6---------------------|-------------------9---10------|-------------------------------|-------9---8---------6----7----|--5----------5--7-----------8--|-------------------------------|
------13----12---------8---5------|----------------------------------|---------10----9---------5--------|-----------------------------7----|-----------------7----------------|--10----------------5-------------|
.--12------10----------------------------|--13---------13-12-10-------------------|----------------------13-10-------------|----------------------------14-12-10----|-------------------------------------14-|----------------------------------------|
.----------------------------------|----------------------------------|----------------------------------|--10------12-14-12-10-------------|--12------------------14-12-11----|----------------------------12----|
.--12------10----------------------------|--13---------13-12-10-------------------|----------------------13-10-------------|----------------------------14-12-10----|-------------------------------------14-|----------------------------------------|
.----------------------------------|----------------------------------|----------------------------------|--10------12-14-12-10-------------|--12------------------14-12-11----|----------------------------12----|
.----------------------------------12-13-|-------------------------12-14-15-------|----------------10-12-14----------------|--11------12-14-------------------------|--12------------------------------------|----------------------------------------|
.---------------------------------10-12-|------------------------10-12-13-------|----------------9-10-12----------------|---9------10-12------------------------|--10-----------------------------------|---------------------------------------|
. .--13------12-10-12------10----|--15------------13---------13-|------------------------------|------------------------------|------------------------------|------------------------------|
----------------------------------|----------------------------------|--10--9---------------------------|--12----12-10----9----------------|--------------12---11-12----0-----|----------------------------------|
--12h----13p-12-------------------------------|----------------13----10h-12p-10-12h-13p-12-9-|----------------------------------------------|----------------------------------------------|----------------------------------------------|----------------------------------------------|
--12h-13p-12----------------------------------|-------------13-------------------------------|--------------------------------------------1-|------------------------------------2h-3p-2---|-------------------0h-2p-0h-2h-3p-2-----------|----------------------------------------------|
--12h-13p-12----------------------------------|-------------13----10h-12p-10-12h-13p-12-9h-1-|----------------------------------------------|----------------------------------------------|----------------------------------------------|----------------------------------------------|
--12h-13p-12----------------------------------|-------------13-------------------------------|--------------------------------------------1-|------------------------------------2h-3p-2---|-------------------0h-2p-0h-2h-3p-2-----------|----------------------------------------------|
--12h-13p-12------------------10h-12p-10------|-------------14----10h-11p-10-----------------|----------------------------------------------|-----------------------------------------7h-8-|----------------------------------------------|----------------------------------------------|
--10h-12p-10----------------8h-10p-8---------|-------------12----8h-10p-8------------------|---------------------------------------------|-------------------------------------5h-7p-5-|---------------------------------------------|---------------------------------------------|
--10h-12p-10-13---------------8h-10p-8-12----|---------------------------------------------|---------------------------------------------|---------------------------------------------|---------------------------------------------|-------------------10h-12p-10----------------|
--10h-12p-10---------7h-8p-7-----------------|---------------------------------------------|---------------------------------------------|---------------------------------------------|---------------------------------------------|-------------7h-8p-7---------4h-5p-4-5h-7p-5-|
-----------------------------------------7--7-|--1--------------------------5--3--1--0--0--0-|--2--------------------------5--4--2--1-------|----------------------------------------------|----------------------------------------------|----------------------------------------------|
-----------------5--4--0--|--1--5--3--1--0--4--5--0--|--2--5--4--2--1-----------|--------------------------|--------------------------|--------------------------|
-----------------7--7-----|--1--5--3--1--0--0--0--0--|--2--5--4--2--1--------1--|--------------------------|--------------------------|--------------------------|
-----------------5--4--0--|--1--5--3--1--0--4--5--0--|--2--5--4--2--1-----------|--------------------------|--------------------------|--------------------------|
--------------10--12--13--10--|--2--3--5--2------------------|--2--4--6--2--10--12--14--10--|------------------------------|------------------------------|------------------------------|
--------------0--1--3--0--|--0--1--3--0--------------|--------------0--0--0--0--|--0--2--3--0--------------|--------------------------|--------------------------|
--1-----0--1--0-----------|--0--3--0--0--1--3--1--2--|-----4-----------4--2--0--|--------------------------|--------------------------|--------------------------|
-----5--5--4--5----------|--3----------------------|-----5--5--4--5----------|--3----------------------|-------------------------|-------------------5-----|
--8--------------------------------7-4-0-10-7-|----------------10----------------------------|-------------------9-------9------------------|---------------------10------10---------------|------------------------12------12------------|----------------------------------------------|
--8--------------------7-4-0----------|----10-----------------------5--------|-------9-------9---------------4------|---------10------10--------------6----|------------12------12-------------7--|--------------------------------------|
--8--------------------7-4-0-10-7-0-4-0-|----10----------------------------------|-------9-------9------------------------|---------10------10---------------------|------------12------12------------------|----------------------------------------|
--8--------------------7-4-0----------|----10-----------------------5--------|-------9-------9---------------4------|---------10------10--------------6----|------------12------12-------------7--|--------------------------------------|
--12-9-------------------------10-------------|-------10-------------------------10----------|----------9--------------------------10-------|------------11--------------------------12----|---------------12p-10-------------------------|----------------------12-13-10-------------13-|
--10-7--------------------8------------|-------8--------------------8----------|---------10p-7----------------9--------|---------------9----------------10-----|-----------------8----7------------7---|-------------------10---8------------8-|
--7-5-4---------------------------|--------6-5-----------------------|------------7-5-4-----------------|------------------7-5-3-----------|------------------------7-5-3-----|------------------------------7-5-|
------5-------7-4-5-------------|--------6-----------5-----------|----------------------5---------|----------6-------------7-------|--8-5-------7-------------0-----|--------------------------------|
.--17---------20-19-17-------------------|----------17----------21-19-17-19-21-17-|----------------------------------------|----------------------------------------|----------------------------------------|----------------------------------------|
--17----L-19-20-22-23---24-------|---------------------------------|---------------------------21----|---------------------------------|---------------------------------|---------------------------------|
.--17---------20-19-17-------------------|----------17----------21-19-17-19-21-17-|----------------------------------------|----------------------------------------|----------------------------------------|----------------------------------------|
--17----L-19-20-22-23---24-------|---------------------------------|---------------------------21----|---------------------------------|---------------------------------|---------------------------------|
--17----L-24-21----------------------------|----------------22-20----------------------|----------------------21-18----------------|----------------------------19-17-15-14-12-|-------------------------------------------|-------------------------------------------|
--15----L-22-19----------------------------|----------------20-------------------------|-------------------22-19-------------------|-------------------------21-17-------------|-------------------------------20-19-------|-------------------------------------22-20-|
--13----L----------------------------------|----------15-12----------------------------|----------------14-13----------------14-12-|----------------------14-12-------14-------|----------------------------14-15----------|-------------------------------------------|
-----------------19-16----17----------|-----15-12-------------17-------------|-----------14-13----------------------|--15----------------------------------|--------------------------------0-----|--------------------------------------|
^ v ^ v ^ v ^ v--0------------0-0-0-0-0-0-0-----------------|--1------------1-1-1-0-0-1-1---------------5-|--2------------2-2-2-1-1-2-2-------------4---|--2------------2-2-2-2-2-2-2-----------6-----|--0------------0-0-0-2-2-0-0---------7-------|-----------------------------4h----7---------|
^ v ^ v ^ v ^ v
--0-0-0-0-0-0-0-0---12p---7-------------|--1-1-1-1-3-3-1-1-----------9-----------|--2-2-2-2-2-2-2-2-------------9---------|--2-2-2-2-2-2-2-2---------------9-------|--0-0-0-0-0-0-0-0-----------------11----|------------------4------------------12-|
^ v ^ v ^ v ^ v
--0-0-0-0-0-0-0-0-----------------4-7-12-16-1-|--1-1-1-1-0-0-1-1---------------5-------------|--2-2-2-2-1-1-2-2-------------4---------------|--2-2-2-2-2-2-2-2-----------6-----------------|--0-0-0-0-2-2-0-0---------7-------------------|------------------4h----7---------------------|
^ v ^ v ^ v ^ v
--0-0-0-0-0-0-0-0-------12p-7-------------|--1-1-1-1-3-3-1-1-------------9-----------|--2-2-2-2-2-2-2-2---------------9---------|--2-2-2-2-2-2-2-2-----------------9-------|--0-0-0-0-0-0-0-0-------------------11----|------------------4--------------------12-|
^
---9-----------------------------------------|--10-----------------------------------------|---9-----------------------------------------|---7-----------------------------------------|---0-----------------------------------------|---------------------------------------------|
^ v ^ v ^ v ^ v
--7-7-7-7-8-8-10-10---------------------8-12-|--8-8-8-8-5-5--8--8-------------------8------|--7-7-7-7-5-5--0--0-----------------9--------|--5-5-5-5-5-5--9--9--------------10----------|--------------10-10-7-------7-10-------------|--------------------------8------------------|
^ v ^ v ^ v ^ v
--1-----------------------------1-1-1-0-0-0-0-|--0-----------------------------0-0-0-1-1-3-3-|--2-----------------------------2-2-2-2-2-2-2-|--0-----------------------------0-0-0-2-2-2-2-|--------------------------------------0-0-0-0-|----------------------------------------------|
-------------------------------------8-------|----------------------------------10---------|--------------------------------9----------4-|-----------------------------10----------6---|--------------------------12-----------7-----|--12-----------------------------------------|
---------------5----------------------5-10-13-|-------------5---5------------------6---------|-----------6-------6--------------7-----------|---------7-----------7----------7-------------|-------7---------------7---5h-8---------------|--5h-9-------------------9--------------------|
^ v ^ v ^ ^ ^ v
--7-7-10-10-13-13-7-7--------------5---------|--6-6--9--9-12-12-6-6------------5---5-------|--7-7-10-10-13-13-7-7----------5-------5-----|--6-6--9--9-12-12-6-6--------7-----------7---|---------------------------7---------------7-|----------------------5h-8-------------------|
---------------5----------------------5-10-13-|-------------5---5------------------6---------|-----------6-------6--------------7-----------|---------7-----------7----------7-------------|-------7---------------7---5h-8---------------|--5h-9-------------------9--------------------|
^ v ^ v ^ v ^ v
--7-7-10-10-13-13-7-7--------------5---------|--6-6--9--9-12-12-6-6------------5---5-------|--7-7-10-10-13-13-7-7----------6-------6-----|--6-6--9--9-12-12-6-6--------7-----------7---|---------------------------7---------------7-|----------------------5h-9-------------------|
---------------5h-9p-5------------------------|-------------5---------5--------------------5-|-----------6-------------6----------------6---|---------7-----------------7------------7-----|-------7---------------------7--------7-------|--5h-9-------------------------9-5h-9---------|
----------------------12h-17------------------|-------------------14--------17---------------|----------------14--------------18------------|-------------11--------------------19---------|----------12----------------------------------|--5-9-12-----------------------------16h-17---|p
^--------------------------------5--------|--------------------------------5--------|--------------------------------6--------|--------------------------------7--------|--0h-2p-0h-2p-0h-2p-0h-2--------7--------|-------------------------4h--5--5--------|
Tap to rate this tab
 
# A B C D E F G H I J K L M N O P Q R S T U V W X Y Z