Pantera - 10s tab

================================================================================
                                 P A N T E R A

                                       -

                                    1 0 ' S
================================================================================


                          THE GREAT SOUTHERN TRENDKILL
		           (c) 1996 East West Records
                             http://www.pantera.com/


                                Tune Down 1 Step
			          D G C  F A D


 Note that the tuning on the CD track is 50 cents higher than that outlined in
                             the tab's guitar tuning.


			         Tempo = 110 BPM
		              Time Signature = 4/4



                          -----------------------------
		                 Transcribed by

		                 PADDY MCMULLAN
                           stinkypoohpants@yahoo.co.uk

                                   Version 1.0
                             -----------------------

		             Tablature Symbols Used:


 P.M.. ... -  Palm Mute
 h         -  Hammer-on
 p         -  Pull-off
 4 b 5     -  Bend Up
 5 r 4     -  Release Bend
 pb19      -  Pre-bend (Bend to the note before striking it)
 \         -  Slide Down to/Down From
 /         -  Slide Up to/Up From
 ( / )     -  Legato Slide
 ( )       -  Ghost Note/Tied Note/Implied Note
 xx\xx\    -  Pick scrapes
 %         -  Whammy Bar (Articulation is indicated above tab, blank spaces
              indicate length of articulation)
 x         -  Muted Note/Dead Note
 <9>       -  Pinch/Artificial Harmonic
 >>        -  Note(s) Fade in/out
 REST      -  Rest, and sustain rest for duration of blank space
 |_3_|     -  Triplet Note(s)



                                   ===========
                                   Song  Notes
                                   ===========



 The first 4 bars of the intro are all you really need to play the entire intro
 and verse riffs for guitars 1 & 2, with some minor variations throughout.  The
 variations are tabbed in full if you want to match the CD track note-for-note.



================================================================================
Intro 1.1: Guitar 1 with Heavy Distortion (Play once)
================================================================================


For the first 6 bars turn your guitar's volume knob down about half way, using
the 7th & 8th bar to gradually turn it back up again to full volume by the time
you reach the 9th bar.  Use the last bar of this section to turn the volume down
again prior to Verse 1.



*Let notes ring wherever possible*


1||-------------------------------------|||-------------------------------------|||--0----0---0----0----0---0-----0-----|||--4 b 5---5----5----5---5 r 4--4--|||----------------------------------4--|||----------------------------------2--|
2 3|----------------------|-------------------------------------||------2---------------|----------------------------------2--||------2---------------|--0---0---0----0----0---0---------2--||-(4)------------------|--4 b 5---5----5----5---5 r 4-----4--||-(4)------------------|-------------------------------4-(4)-||-(2)------------------|-------------------------------------|
4 5|---------------------|------------------------------------||--(2)----------------|------------------------------------||--(2)--------------x-|--0---0---0----0----0---0-----0-----||--(4)----------------|--4 b 5---5----5----5---5 r 4-----||--(4)----------------|---------------------------------4--||---------------------|---------------------------------2--|
6|-----2---------------||-----2---------------||---------------------||---------------------||--(4)----------------||--(2)----------------|
7|----------------------------------------||----------------------------------------||--0----0---0----0----0---0--0----(0)----||--4 b 5---5----5----5---5--5 r (4)-4--||-------------------------------------4--||----------------------------------------|
8 9|------------------------|------------------------------------||------------------------|------------------------------------||------------------------|--0---0---0----0----0---0-----0-----||--(4)----------11\ -----|--4 b(5)--5----5----5---5 r (4)----||--(4)-------------------|---------------------------------4--||--------------------6\ -|---------------------------------2--|
10 11|-----2---------------|------------------------------------||-----2---------------|------------------------------------||-----2---------------|--0---0---0----0----0---0-----0-----||---------------------|--4 b(5)--5----5----5---5 r (4)-4--||-(4)-----------------|---------------------------------4--||-(2)-----------------|---------------------------------2--|
12 13|------------------------|------------------------------------||-----2-------2----2-----|------------------------------------||-----2-------2-------2--|--0---0---0----0----0---0-----0-----||-(4)-4-------4----------|--4 b(5)--5----5----5---5 r (4)-4--||-(4)------4-------------|---------------------------------4--||-(2)--------------------|---------------------------------2--|
14 15|-----2---------------|------------------------------------||-----2---------------|---------------------------------2--||-----2---------------|--0---0---0----0----0---0--------2--||-(4)-----------------|--4 b(5)--5----5----5---5 r4-----4--||-(4)-----------------|------------------------------4--4--||-(2)-----------------|------------------------------2--2--|
P.M 16|-------------|||--(2)--------|||--(2)--------|||--(4)--------|||--(4)--------|||--(2)--------||
================================================================================ Intro 1.2: Guitar 2 with Heavy Distortion (Play once) ================================================================================ For the first 6 bars turn your guitar's volume knob down about half way, using the 7th & 8th bar to gradually turn it back up again to full volume by the time you reach the 9th bar. Use the last bar of this section to turn the volume down again prior to Verse 1. *Let notes ring wherever possible*
1||-------------------------------------|||-------------------------------------|||--0----0---0----0----0---0-----0-----|||--4 b(5)--5----5----5---5 r (4)-4--|||----------------------------------4--|||----------------------------------2--|
2 3|-----2---------------|------------------------------------||-----2---------------|---------------0-----------------2--||---------------------|--0---0---0----0----0---0--------2--||-(4)-----------------|--4 b(5)--5----5----5---5r(4)----4--||-(4)-----------------|---------------------------------4--||---------------------|------------------------------2-----|
4 5|-------------------|------------------------------------||--(2)--------------|------------------------------------||--(2)--------------|--0---0---0----0----0---0-----0-----||--(4)--------------|--4 b(5)--5----5----5---5 r (4)-4--||--(4)--------------|---------------------------------4--||--(2)--------------|---------------------------------2--|
6|-----2---------------||-----2---------------||-----2---------------||-(4)-----------------||-(4)-----------------||-(2)-----------------|
7|-------------------------------------||----------------------------------2--||--0---0---0----0----0---0---------2--||--4 b 5---5----5----5---5 r 4-----4--||-------------------------------4-(4)-||-------------------------------------|
8 9|------------------------|------------------------------------||--(2)-------------------|--0-------0-------------------------||--(2)-------------------|--0---0---0----0----0---0-----0-----||--(4)----------7/11\ --|--4 b(5)--5----5----5---5 r (4)-4--||--(4)-------------------|---------------------------------4--||------------------------|---------------------------------2--|
10 11|-----2----------------|------------------------------------||-----2----------------|--0-------0-------------------------||-----2----------------|--0---0---0----0----0---0-----0-----||-(4)------------------|--4 b(5)--5----5----5---5 r (4)-4--||-(4)-------------4----|---------------------------------4--||-(2)-------------2----|---------------------------------2--|
12 13|---------------------|------------------------------------||-----2---------------|--0-------0-------------------------||-----2---------------|--0---0---0----0----0---0-----0-----||-(4)-----------------|--4 b(5)--5----5----5---5 r (4)-4--||-(4)-----------------|---------------------------------4--||-(2)-----------------|---------------------------------2--|
14 15|-----2---------------|------------------------------------||-----2---------------|---------------------------------2--||-----2---------------|--0---0---0----0----0---0--------2--||-(4)-----------------|--4 b(5)--5----5----5---5 r4-----4--||-(4)-----------------|------------------------------4-----||-(2)-----------------|------------------------------2-----|
... 16|------------|||-(2)--------|||-(2)--------|||-(4)--------|||------------|||------------||
================================================================================ Verse 1a: Guitar 1 (Play once) ================================================================================ For the first 6 bars turn your guitar's volume knob down about half way, using the 7th & 8th bar to gradually turn it back up again to full volume by the time you reach the 9th bar. *Let notes ring wherever possible*
1 2||------------------------------------|---------------------|||------------------------------------|-----2---------------|||--0---0---0----0----0---0-----------|-----2---------------|||--4 b 5---5----5----5---5 r4--------|---------------------|||---------------------------------4--|-(4)-----------------|||------------------------------2--2--|-(2)-----------------|
3 4|------------------------------------|---------------------||----------0----0--------------------|-----2---------------||--x---0---0----0----0---0-----0-----|-----2---------------||--4 b(5)--5----5----5---5 r (4)----|---------------------||---------------------------------4--|-(4)-----------------||---------------------------------2--|-(2)-----------------|
5 6|------------------------------------|----------------------||------------------------------------|----------------------||--0---0---0----0----0---0-----------|-------2--------------||--4 b 5---5----5----5---5 r -4-----|----------------------||---------------------------------4--|-(4)------4-----------||---------------------------------2--|-(2)------------------|
7 8|------------------------------------|--------------------------||------------------------------------|-----2----(2)p (0)--------||--0---0---0----0----0---0-----------|-----2----(2)p (0)--------||--4 b(5)--5----5----5---5 r (4)-4--|-(4)----------------------||---------------------------------4--|-(4)----------------9\ --||------------------------------------|--------------------------|
9 10|------------------------------------|-----2---------------||------------------------------------|-----2---------------||--0---0---0----0----0---0-----0-----|-----2---------------||--4 b(5)--5----5----5---5 r (4)----|---------------------||---------------------------------4--|-(4)-----------------||---------------------------------2--|-(2)-----------------|
11 12|------------------------------------|-------------------------||------------------------------------|-----2--2-----2----------||--0---0---0----0----0---0-----0-----|-----2--2-----2----------||--4 b(5)--5----5----5---5 r (4)-4--|-(4)-4--4--4--4-------4--||---------------------------------4--|-(4)-------4-------4-----||---------------------------------2--|-(2)---------------------|
13 14|------------------------------|---------------------||--0---0--0--0--0--0--0--------|------------------0--||--0---0--0--0--0--0--0--------|------------------x--||--4 b(5)-5--5--5--5 r (4)-4--|-(4)--------------4--||---------------------------4--|-(4)-----------------||---------------------------2--|-(2)-----------------|
15 16|------------------------------|---------------------------|||--0------0--0--0--0-----------|------------------2--------|||--0---0--0--0--0--0-----------|------------------2--------|||--4 b(5)-5--5--5--5 r (4)-4--|-(4)-----------4--4--4--4--|||---------------------------4--|-(4)-----4--4--4-----4--4--|||---------------------------2--|-(2)-----2--2--2-----2--2--|| ....
================================================================================ Verse 1b: Guitar 2 (Play once) ================================================================================ For the first 6 bars turn your guitar's volume knob down about half way, using the 7th & 8th bar to gradually turn it back up again to full volume by the time you reach the 9th bar. *Let notes ring wherever possible*
1 2||------------------------------------|---------------------|||--0---0---0----0--------------------|---------------------|||--0---0---0----0----0---0-----------|-----2---------------|||--4 b 5---5----5----5---5 r -4-----|-----4---------------|||------------------------------------|-----4---------------|||---------------------------------2--|-(2)-----------------|
3 4|------------------------------------|---------------------||----------0----0--------------------|-----2---------------||--0---0---0----0----0---0-----0-----|-----2---------------||--4 b(5)--5----5----5---5 r (4)----|-----4---------------||---------------------------------4--|-(4)-----------------||------------------------------------|---------------------|
5 6|------------------------------------|---------------------||--0---0-----------------------------|---------------------||--0---0---0----0----0---0-----------|-----2---------------||--4 b 5---5----5----5---5 r -4-----|---------------------||---------------------------------4--|-(4)----4------------||---------------------------------2--|-(2)-----------------|
7 8|------------------------------------|---------------------------||--0-------0----0----0---------------|-----2---------------------||--0---0---0----0----0---0-----------|-----2---------------------||--4 b 5---5----5----5---5 r4--------|-----4---------------------||---------------------------------4--|-(4)----------------12\ --||------------------------------2--2--|-(2)-----------------------|
9 10|------------------------------------|----------2-------2-----||--0-------0-------------------------|-----2----2--2----2--2--||--0---0---0----0----0---0-----0-----|-----2-------2-------2--||--4 b(5)--5----5----5---5 r (4)-4--|-(4)-4-------4-------4--||---------------------------------4--|-(4)--------------------||---------------------------------2--|-(2)--------------------|
11 12|------------------------------------|---------------------||------------------------------------|-----2---------------||--0---0---0----0----0---0-----0-----|-----2---------------||--4 b(5)--5----5----5---5 r (4)-4--|-(4)-----------------||---------------------------------4--|-(4)-----------------||---------------------------------2--|-(2)-----------------|
13 14|-----------------------------------|-----------------------||--0-------0----0----0---0----------|-----2-----------2-----||--0---0---0----0----0---0----------|-----2--------------2--||--4 b 5---5----5----5---5 r-4---4--|-(4)-------------------||--------------------------------4--|-(4)-------------------||--------------------------------2--|-(2)-------------------|
15 16|------------------------------------|-------------------|||------0---0----0----0---0-----------|-------------------|||--0---0---0----0----0---0-----------|-------------------|||--4 b(5)--5----5----5---5 r4--------|-------------------|||---------------------------------4--|-(4)---------------|||------------------------------2--2--|-(2)---------------||
================================================================================ Chorus 1: Guitars 1 & 2 (Play once) ================================================================================
% Bend bar up one step then release||-----------------------------|-------------------|||-----------------------------|-------------------|||-------------------------%---|-------------------|||------------------------[4 | / 6 \ 4 ]--|||--2----------------2--2------|-------------------|||--0------2--(2/4)-----4------|-------------------|
% Bend bar up half a step, strike, then release|----------------------------|-----------[1 \ 0]---||----------------------------|-----------[1 \ 0]---||-------------------------%--|------------x---------||----------------------2-[2 | / 3][3 \ 2]---||--2----------------2--2-----|----------------------||--0------2--(2/4)-----------|----------------------|
% Bend bar up one step then release|-----------------------------|-------------------||-----------------------------|-------------------||-------------------------%---|-------------------||------------------------[4 | / 6 \ 4 ]--||--2----------------2--2------|-------------------||--0------2--(2/4)-----4------|-------------------|
% Bend bar up half a step then release|---------------------------|-------------------|||---------------------------|-------------------|||-----------------------%---|-------------------|||--------------------2-[2 | / 3 \ 2]----|||--2--------------2--2------|-------------------|||--0------2--2g4------------|-------------------||
================================================================================ Verse 2a: Guitar 1 (Play once) ================================================================================ For the first 6 bars turn your guitar's volume knob down about half way, using the 7th & 8th bar to gradually turn it back up again to full volume by the time you reach the 9th bar. *Let notes ring wherever possible*
1 2||-------------------------------------|----------------------|||-------------------------------------|----------2-----------|||--x---0---0----0----0---0------------|-----2----2--2--------|||--x b(5)--5----5----5---5 r-4--4-----|-(4)-4----4--4--------|||-------------------------------x-----|----------------------|||-------------------------------2--2--|-(2)------------------|
3 4|-------------------------------------|-----2----------------||--0---0---0----0---------------------|-----2----------------||--0---0---0----0----0---0-----0------|-----2----------------||--4 b(5)--5----5----5---5 r (4)-----|-----4----------------||----------------------------------4--|-(4)------------------||----------------------------------2--|-(2)------------------|
5 6|------------------------------------|---------------------||--0---0-----------------------------|-----2---------------||--0---0---0----0----0---0-----------|-----2---------------||--4 b(5)--5----5----5---5 r 4-----|-----4---------------||---------------------------------4--|-(4)-----------------||---------------------------------2--|-(2)-----------------|
7 8 Pick scrapes|------------------------------------|---------------------------||------0---0---------0---0-----------|---------------------------||--0---0---0----0----0---0-----------|---------------------------||--4 b(5)--5----5----5---5 r 4--4--|-(4)---16\xx\xx\xx\xx\xx\--||---------------------------------4--|-(4)---16\xx\xx\xx\xx\xx\--||------------------------------------|---------------------------|
9 10|------------------------------------|---------------------------||--0---------------------------------|-----2-----2-----2---------||--0---0---0----0----0---0-----0-----|-----2-----2-----2-----0---||--4 b(5)--5----5----5---5 r (4)-4--|-(4)----4-----4-----4--4 b ||---------------------------------4--|-(4)----4-----4------------||---------------------------------2--|-(2)-----------------------|
11 12|------------------------------------|-----2--2-----2----------||----------0----0----0---------------|-----2--2-----2----------||--0---0---0----0----0---0-----0-----|-----2--2-----2----------||--4 b(5)--5----5----5---5 r (4)-4--|-(4)-4--4--4--4-------4--||---------------------------------4--|-(4)---------------4-----||---------------------------------2--|-(2)---------------2-----|
13 14|------------------------------------|--------------------------||--0---0---0----0----0---0-----------|-----2--2--2--------------||--0---0---0----0----0---0-----0-----|-----2--2--2--------2--2--||--4 b(5)--5----5----5---5 r (4)-4--|-(4)-4--4--4--4--4--4--4--||---------------------------------4--|-(4)----------4--4--------||---------------------------------2--|-(2)----------------------|
15 16|-----------------------------------|---------------------------|||--0--------------------------------|-----2--2------2--2--2-----|||--0---0---0----0----0---0----------|-----2--2--2-2-2--2--2-----|||--4 b(5)--5----5----5---5 r 4--4--|-(4)-------4-4-4--4--4-----|||--------------------------------4--|-(4)-------4-4----------4--|||--------------------------------2--|-(2)--------------------2--||
================================================================================ Verse 2b: Guitar 2 (Play once) ================================================================================ For the first 6 bars turn your guitar's volume knob down about half way, using the 7th & 8th bar to gradually turn it back up again to full volume by the time you reach the 9th bar. *Let notes ring wherever possible*
1 2||-----------------------------|-----------------------|||-----------------------------|-----------2-----------|||--0----------0---0-----0-----|-----------2-----------|||--4 b 5---(5)--5 r (4)----|-----------4-----------|||-----------------------------|--------4--------------|||--------------------------2--|-(2)-2-----------------|
3 4|------------------------------------|-------------------||--0---0---0----0-----------------2--|-(2)---------------||--0---0---0----0----0---0--------x--|-------------------||--4 b(5)--5----5----5---5 r4-----4--|-(4)---------------||---------------------------------4--|-(4)---------------||------------------------------2-----|-(2)---------------|
5 6|------------------------------------|---------------------||--0---0-----------------------------|---------2-----------||--0---0---0----0----0---0-----------|---------2-----------||--4 b(5)--5----5----5---5 r 4------|---------4-----------||---------------------------------4--|-(4)-----------------||---------------------------------2--|-(2)-----------------|
7 8 Pick scrapes|------------------------------------|-----2----------------------||------0---0----L----0---0--------2--|-(2)-2----------------------||--0---0---0----0----0---0--------2--|-(2)-2----------------------||--4 b(5)--5----5----5---5 r 4----4--|-(4)--------16\xx\xx\xx\----||---------------------------------4--|-(4)--------16\xx\xx\xx\----||------------------------------2-----|-(2)---------------------0--|
9 10|------------------------------------|-----2--2--2--2-----------||--0-------0-------------------------|-----2--2--2--2-----2--2--||--0---0---0----0----0---0-----0-----|--------2-----2-----2--2--||--4 b(5)--5----5----5---5 r (4)-4--|-(4)-------------4--4--4--||---------------------------------4--|-(4)-------------4--------||---------------------------------2--|-(2)----------------------|
11 12|------------------------------------|------------------------||------0-----------------------------|-----2----2-------2--2--||--0---0---0----0----0---0-----0-----|-----2----2----2--2--2--||--4 b(5)--5----5----5---5 r (4)-4--|-(4)-4----4----4--------||---------------------------------4--|-(4)-----------4--------||---------------------------------2--|-(2)--------------------|
13 14|-----------------------------------|-------------------------||--0-------0----0----0---0----------|-------------------------||--0---0---0----0----0---0----------|-----2--2----2-----2--2--||--4 b(5)--5----5----5---5 r 4---4--|-(4)-4--4----4-----4--4--||--------------------------------4--|-(4)----4-------4--4--4--||--------------------------------2--|-(2)---------------------|
15 16|-----------------------------------|----------------------------|||-----------------------------------|----------------------------|||--0---0---0----0----0---0----------|----------------------------|||--4 b(5)--5----5----5---5 r 4------|-----4--4--4-4-4--4--4--4\ -|||--------------------------------4--|-(4)-4--4------4--4--4--4\ -|||--------------------------------2--|-(2)-----------------2--2\ -||
================================================================================ Chorus 2: Guitars 1 & 2 (Play once) ================================================================================
% Bend bar up one step then release 1 2||-----------------------------|-------------------|||-----------------------------|-------------------|||-------------------------%---|-------------------|||------------------------[4 | / 6 \ 4 ]--|||--2----------------2--2------|-------------------|||--0------2--(2/4)-----4------|-------------------|
% Bend bar up half a step, strike, then release 3 4|----------------------------|-----------[1 \ 0]---||----------------------------|-----------[1 \ 0]---||-------------------------%--|------------x---------||----------------------2-[2 | / 3][3 \ 2]---||--2----------------2--2-----|----------------------||--0------2--(2/4)-----------|----------------------|
% Bend bar up one step then release % 5 6 7|-----------------------------|-------------------|----------------------------||-----------------------------|-------------------|----------------------------||-------------------------%---|-------------------|-------------------------%--||------------------------[4 | / 6 \ 4 ]--|----------------------2-[2 ||--2----------------2--2------|-------------------|--2----------------2--2-----||--0------2--(2/4)-----4------|-------------------|--0------2--(2/4)-----------|
(From bar 7 to 8) Bend up 1/4 step, strike, then release (x.5) = 1/4 note bend
% Bend up 1/4 step % Bend bar up one step then release 8 9 10|----------------------------|-----------------------------|-------------------||----------------------------|-----------------------------|-------------------|| (0.5)]--%---------|-------------------------%---|-------------------|| / (2.5) ]-[2 /(3.5)]-|------------------------[4 | / 6 \ 4 ]--||----------------------------|--2----------------2--2------|-------------------||----------------------------|--0------2--(2/4)-----4------|-------------------|
% Bend bar up half a step, strike, then release 11 12|----------------------------|-----------[1 \ 0]---||----------------------------|-----------[1 \ 0]---||-------------------------%--|------------x---------||----------------------2-[2 | / 3][3 \ 2]---||--2----------------2--2-----|----------------------||--0------2--(2/4)-----------|----------------------|
% Bend bar up one step then release 13 14|-----------------------------|-------------------||-----------------------------|-------------------||-------------------------%---|-------------------||------------------------[4 | / 6 \ 4 ]--||--2----------------2--2------|-------------------||--0------2--(2/4)-----4------|-------------------|
% Bend bar up half a step then release 15 16|---------------------------|-------------------|||---------------------------|-------------------|||-----------------------%---|-------------------|||--------------------2-[2 | / 3 \ 2]----|||--2--------------2--2------|-------------------|||--0------2--2g4------------|-------------------||
================================================================================ Guitar Solo Backing Track: Acoustic Guitar (Repeats outlined below) ================================================================================
| |--------------------------|-----------------0--------| || |--------3-----------3-----|-----3--------------3-----| ||*|-----------0--------------|--------0--------------0--|*| x 10|*|-----4-----------4--------|--4-----------4-----------|*|| |--2-----------------------|--------------------------| || |--------------2--------3--|-----------0--------------| |
|--------------0-----------|--------------0-----------||--------3--------3--------|-----------------3--------||-----0--------------0-----|--------0-----------0-----||-----------4--------------|-----4-----4-----------0--||--------------------------|--------------------------||--3--------------------2--|-(2)----------------------|
|-----2--0--2-----2--------|--------0-----------------||-----------3--------3-----|--------3--3--------2--3--||-----------------------0--|-----------------2--------||--0-----------------------|-----4--------------------||--------------4-----------|--2-----------0-----------||--------------------------|--------------------------|
|--------------0-----------|--------------------------||--------3--------3--------|--------3-----------3-----||-----0--------------0-----|-----0-----------------0--||-----------4-----------4--|-----------4-----4--------||--------------------------|--------------1-----------||--3-----------------------|--2-----------------------|
| |--------------------------|-----------------0--------| || |--------3-----------3-----|-----3--------------3-----| ||*|-----------0--------------|--------0--------------0--|*| x 3|*|-----4-----------4--------|--4-----------4-----------|*|| |--2-----------------------|--------------------------| || |--------------2--------3--|-----------0--------------| |
|--------------------------|--------------------------|||--------3-----------3-----|--------------------------|||-----------0-----------0--|--(0)---------------------|||-----4-----------4--------|--------------------------|||--2-----------------------|--------------------------|||--------------2--------3--|--(3)---------------------||
================================================================================ Lead Fills (pre- and post-solo): Guitars 4 & 5 with Distortion (Play once each) ================================================================================ *Guitar 4 takes the low notes, and guitar 5 takes the high* ========= Pre-Solo: ========= Enter on bar 4 of the guitar solo backing track.
||---------------------|---------------------------|||--R- ->>12~~--|-(12)~~---- \ 7~~-----8~~-|||--E- ->>11~~--|-(11)~~---- \ 6~~-----7~~-|||--S- ---------|---------------------------|||--T- ---------|---------------------------|||---------------------|---------------------------|
|------------------------|---------------------------|-------------|||-(8)~~- \ 3~~-----3~~ / |--12~~-------15~~-----10b | (12)~~------|||-(7)~~- \ 2~~-----2~~ / |--11~~-------11~~-----2 b | (4) ~~------|||------------------------|---------------------------|-------------|||------------------------|---------------------------|-------------|||------------------------|---------------------------|-------------||
========== Post-Solo: ========== Enter on the 5th-last bar of the guitar solo backing track.
||---------------------|---------------------------|||--R- ->>12~~--|-(12)~~---- \ 7~~-----8~~-|||--E- ->>11~~--|-(11)~~---- \ 6~~-----7~~-|||--S- ---------|---------------------------|||--T- ---------|---------------------------|||---------------------|---------------------------|
|------------------------|-------------------------|------------|||-(8)~~- \ 3~~-----3~~ / |--12~~-------7~~-----7b | (8)~~------|||-(7)~~- \ 2~~-----2~~ / |--11~~-------6~~-----6b | (7)~~------|||------------------------|-------------------------|------------|||------------------------|-------------------------|------------|||------------------------|-------------------------|------------||
================================================================================ Guitar Solo: Guitar 6 (Play once) [ Tempo = 112 ] ================================================================================ Enter on bar 8 of the guitar solo backing track. * = 1/4 bend
1 2 3||---------------------|------------------------------|------------------------|||---------------------|------10----------------------|--------------------*---|||-(9 b 11r9 b 11)~~-|(11)~~-(11 r 9)--7----9 b11-|--7~~-------9-9-7---7b -|||--x------------------|------------------------------|------------------9-----|||--x------------------|------------------------------|------------------------|||---------------------|------------------------------|------------------------|
4 5 6|-----------------------|-----------------------------|-------12---------------||-----------------------|--10------- \----------10--|-(10)-----(12 b 14 r||-------7~~------(7/11)-|--11------- \---(7/11)-11--|-(11)-------------------||--9p 7-----------------|-----------------------------|------------------------||-----------------------|-----------------------------|------------------------||-----------------------|-----------------------------|------------------------|
7 |___3__| 8 9|---------------------------|-------------------|------------------------------|| 12)-10h12-10--------7---|-(7)---------------|-(17b19r17 b 19 r18)-pb19-||-------------11b-------9 b | 11~~-----9\ (x)/ |------------------------------||---------------------------|-----------9\ (x)/ |------------------------------||---------------------------|-------------------|------------------------------||---------------------------|-------------------|------------------------------|
* = 1/4 bend 10 11|---------------*-------|------------------------------------------------------||-(19)~~---15-17b --15--|-17-17-15-----15---15---------------------------------||-----------------------|----------16-(16) (16\14)16-16-14----14-14---------||-----------------------|-------------------------------------16-------16-(16)-||-----------------------|--------------------------------------------------17--||-----------------------|------------------------------------------------------|
* = 1/4 bend % Bend bar up 3 steps then release 12 13|-----------------------------------------------|-------------------------||-----------------------------------------------|------------------*------||----------------------------------------%------|---------------<7>b -----||--16-(16\15)----15-(15\14)---(14\12\11/)[12 / | 18 \ 12]----------9~~-||-------------17------------15------------------|-------------------------||-----------------------------------------------|-------------------------|
14 15|-------------------------------|----------------------------------------------||-------------------------------|--R- ----------------------------------------||-------------------------------|--E- ----------------------------14----16----||-(9)~~-<9>-9-7---7-------------|--S- -------12----14----14-15-16----16----16-||---------------9---(9\7)--5 b7-|--T- (12/14)---14----14----------------------||-------------------------------|----------------------------------------------|
16|___3__| |___3__| |___3__| |___3__| |___3__| |___3__| |____3__| |____3__||------------------------------------------------------------------------------||--------14h15-14h15p14h15-14-14-17p14-17p14-13-14-15p14-15p(14\13)-14p(13\12)-||--14-16-----------------------------------------------------------------------||------------------------------------------------------------------------------||------------------------------------------------------------------------------||------------------------------------------------------------------------------|
* = 1 & 1/4 bend
17|___3___| |___3__| |___3__| 18|------------14----------------(17 b 19 r 17)--(19b | (21.5)~~ r 19)------||---------14----17p14-------------------------------*--|---------------------||--14h16--------------17p16-14-------------------------|---------------x\----||------------------------------------------------------|---------------x\----||------------------------------------------------------|---------------x\----||------------------------------------------------------|---------------------|
Whammy bar vibrato 19 20|--21b22~~-----17~~---- \-15-14-|--15-14-15b 17~~---------------||-------------------------------|-------------------------------||-------------------------------|---------------------------x\--||-------------------------------|-----------------------x\--x\--||-------------------------------|-----------------------x\------||-------------------------------|-------------------------------|
21 22|-(22 b27 r22)~~-22~~-22p19-|-22p19-------------------------------------------||----------------------------|-------22p19-------------------------------------||----------------------------|-------------22p21-19-22-21-19-------------------||----------------------------|-------------------------------21p19-------------||----------------------------|-------------------------------------21p20-19----||----------------------------|----------------------------------------------22-|
23|------------------------|||------------------------|||------------------------|||------------------------|||------------------------|||--19~------ \---------||
================================================================================ Chorus 3/Outro: Guitars 1 & 2 (Play once) [ Tempo = 110 BPM ] ================================================================================
1 2||-----------------------------|-------------------|||-----------------------------|-------------------|||-------------------------%---|-------------------|||------------------------[4 | / 6 \ 4 ]--|||--2----------------2--2------|-------------------|||--0------2--(2/4)-----4------|-------------------|
% Bend bar up half a step, strike, then release 3 4|----------------------------|-----------[1 \ 0]---||----------------------------|-----------[1 \ 0]---||-------------------------%--|-----------[1 \ 0]---||----------------------2-[2 | / 3][3 \ 2]---||--2----------------2--2-----|----------------------||--0------2--(2/4)-----------|----------------------|
% Bend bar up one step then release 5 6|-----------------------------|-------------------||-----------------------------|-------------------||-------------------------%---|-------------------||------------------------[4 | / 6 \ 4 ]--||--2----------------2--2------|-------------------||--0------2--(2/4)-----4------|-------------------|
(x.5) = 1/4 note bend % Bend up 1/4 step % Bend bar up one step then 6 7 release|----------------------------|----------------------------||----------------------------|----------------------------||-------------------------%--| (0.5)]--%---------||----------------------2-[2 | / (2.5) ]-[2 /(3.5)]-||--2----------------2--2-----|----------------------------||--0------2--(2/4)-----------|----------------------------|
% Bend bar up one step then release 8 9|-----------------------------|-------------------||-----------------------------|-------------------||-------------------------%---|-------------------||------------------------[4 | / 6 \ 4 ]--||--2----------------2--2------|-------------------||--0------2--(2/4)-----4------|-------------------|
(x.5) = 1/4 note bend % Bend up 1/4 step % Bend bar up one step then 10 11 release|----------------------------|----------------------------||----------------------------|----------------------------||-------------------------%--| (0.5)]--%---------||----------------------2-[2 | / (2.5) ]-[2 /(3.5)]-||--2----------------2--2-----|----------------------------||--0------2--(2/4)-----------|----------------------------|
% Bend bar up one step then release 12 13|-----------------------------|-------------------||-----------------------------|-------------------||-------------------------%---|-------------------||------------------------[4 | / 6 \ 4 ]--||--2----------------2--2------|-------------------||--0------2--(2/4)-----4------|-------------------|
% Bend bar up half a step then release 14 15 16|-----------------------------|-------------------|-----------|||-----------------------------|-------------------|-----------|||-------------------------%---|-------------------|-----------|||----------------------2-[2 | / 3 \ | \ 2]----|||--2----------------2--2------|-------------------|-----------|||--0------2--(2/4)------------|-------------------|-----------||
Hold the last note until fade On bar 4, guitar 2 plays only the notes on the D and G strings. ================================================================================ End ================================================================================ Tab summary: Intro Verse 1 Chorus 1 Verse 2 Chorus 2 Guitar Solo Chorus 3/Outro END
Tap to rate this tab
 
# A B C D E F G H I J K L M N O P Q R S T U V W X Y Z