Papa Roach - One Track Mind tab

Papa Roach - One Track Mind
Time For Annihilation 2010
Tab: @dramim_design

Jerry Horton Guitar 1

IntroE||--------------------------|---------------------------|B||--------------------------|---------------------------|G||--------------------------|---------------------------|D||--------------------------|-----2--3-----2--3---------|A||-----3--5-----3--5-----5--|---------------------------|D||--0--------0--------0-----|--3--------3--------3--3---|
--------------------------|------------------------------|--------------------------|------------------------------|--------------------------|------------------------------|-----7--8-----7--8--------|------------------------------|--------------------------|------------------------------|--8--------8--------8--8--|--10--10--10--10--1--1--1--1--|
---------------------------|---------------------------|--7--------7\--------------|--7--------7\--------------|--5--------5\--------------|---------------------------|
Verse 0:31 Guitar 1
|--------------------------|--------------------------||--------------------------|--------------------------||--------------------------|--------------------------||--0--0--------------------|--3--3--------7--7--------||--0--0--------------------|--3--3--------7--7--------||--0--0--------------------|--3--3--------7--7--------|
--------------------------|--------------------------|--------------------------|--------------------------|--------------------------|--------------5--5--------|--0--0--------------------|--3--3--------5--5--------|--0--0--------------------|--3--3--------3--3--------|--0--0--------------------|--3--3--------------------|
--------------------------|--------------------------|--------------------------|--------------------------|--------------------------|--------------------------|--0--0--------------------|--3--3--------7--7--------|--0--0--------------------|--3--3--------7--7--------|--0--0--------------------|--3--3--------7--7--------|
--------------------------|--------------------------|--------------------------|--------------------------|--------------------------|--------------5--5--4--4--|--0--0--------------------|--3--3-----3--5--5--4--4--|--0--0--------------------|--3--3-----3--3--3--2--2--|--0--0--------------------|--3--3-----3--------------|
Guitar 2 0:31
PM--------------------------|--------------------------|--------------------------|--------------------------|--------------------------|--------------------------|--------------------------|--------------------------|-----------3--5--5--------|--------------------------|--0--0-----------------2--|--3--3-----3--7--7--6--5--|
PM--------------------------|--------------------------|--------------------------|--------------------------|--------------------------|--------------------------|--------------------------|--------------------------|-----------3--5--5--------|--------------3--3--2--1--|--0--0-----------------2--|--3--3-----3--------------|
PM --------------------------|--------------------------|--------------------------|--------------------------|--------------------------|--------------------------|--------------------------|--------------------------|-----------3--5--5--------|--------------------------|--0--0-----------------2--|--3--3-----3--7--7--6--5--|
PM--------------------------|--------------------------|--------------------------|--------------------------|--------------------------|--------------------------|--------------------------|--------------------------|-----------3--5--5--------|--------------3--3--2--2--|--0--0-----------------2--|--3--3-----3--------------|
Pre Chorus 0:45
--------------------------|--------------------------|--------------------------|--------------------------|--3--3--3--3--3--3--3--3--|--3--3--3--3--3--3--3--3--|--3--3--3--3--3--3--3--3--|--3--3--3--3--3--3--3--3--|--1--1--1--1--1--1--1--1--|--1--1--1--1--1--1--1--1--|--------------------------|--------------------------|
--------------------------|--------------------------|--------------------------|--------------------------|--5--5--5--5--5--5--5--5--|--6--6--6--6--6--6--6--6--|--5--5--5--5--5--5--5--5--|--7--7--7--7--7--7--7--7--|--3--3--3--3--3--3--3--3--|--4--4--4--4--4--4--4--4--|--------------------------|--------------------------|
Chorus 0:52
------------------------|------------------------|------------------------|------------------------|------------------------|------------------------|------------------------|------------------------|------------------------|--0----0--0----0--0--0--|--3----3--3----3--3--3--|--8----8--8----8--8--8--|--0----0--0----0--0--0--|--3----3--3----3--3--3--|--8----8--8----8--8--8--|--0----0--0----0--0--0--|--3----3--3----3--3--3--|--8----8--8----8--8--8--|
------------------------|------------------------|------------------------|--5----5--5----5--5--5--|--5----5--5----5--5--5--|--5----5--5----5--5--5--|
------------------------|------------------------|------------------------|------------------------|------------------------|------------------------|--0----0--0----0--0--0--|--8----8--8----8--8--8--|--0----0--0----0--0--0--|--8----8--8----8--8--8--|--0----0--0----0--0--0--|--8----8--8----8--8--8--|
------------------------------|----------------------------------|------------------------------|----------------------------------|------------------------------|----------------------------------|---9-----9---9-----9---9---9--|--10--10--10--10--11--11--11--11--|--10----10--10----10--10--10--|--10--10--10--10--11--11--11--11--|---9-----9---9-----9---9---9--|--10--10--10--10--11--11--11--11--|
Repeat intro Verse2 01:13
PM PM PM PM PM PM PM PM PM PM PM PM --------------------------|--------------------------|--------------------------|--------------------------|--------------------------|--------------------------|--0--0--------------------|--------------7--7--------|--0--0--------------------|--------------7--7--------|--0--0--0--0--0--0--0--0--|--0--0--0--0--7--7-----7--|
PM PM PM PM PM PM PM PM PM PM --------------------------|--------------------------|--------------------------|--------------------------|--------------------------|--------------5--5--------|--0--0--------------------|--3--3--------5--5--------|--0--0--------------------|--3--3--------3--3--3--3--|--0--0--0--0--0--0--0--0--|--3--3--3--3--------------|
PM PM PM PM PM PM PM PM PM PM --------------------------|--------------------------|--------------------------|--------------------------|--------------------------|--------------------------|--0--0--------------------|--3--3--------7--7--------|--0--0--------------------|--3--3--------7--7--------|--0--0--0--0--0--0--0--0--|--3--3--3--3--7--7--7--7--|
PM PM PM PM PM PM PM PM --------------------------|--------------------------|--------------------------|--------------------------|--------------------------|--------------------------|--0--0--------------------|--3--3--------7--7--------|--0--0--------------------|--3--3--------7--7--------|--0--0--0--0--0--0--0--0--|--3--3--3--3--7--7--7--7--|
--------------------------|--------------------------|--------------------------|--------------------------|-----------5--7--7--------|--------------------------|--0--0-----5--7--7-----2--|--3--3-----3--7--7--6--5--|--0--0-----3--5--5-----2--|--3--3-----3--7--7--6--5--|--0--0-----------------2--|--3--3-----3--7--7--6--5--|
PM PM PM PM PM PM PM PM PM PM PM --------------------------|----------------------------|--------------------------|----------------------------|-----------5--7--7--------|----------------------------|--0--0-----5--7--7-----2--|--3--3-----3--10--10--9--8--|--0--0-----3--5--5-----2--|--3--3-----3--10--10--9--8--|--0--0-----------------2--|--3--3-----3--10--10--9--8--|
--------------------------|--------------------------|--------------------------|--------------------------|-----------5--7--7--------|--------------------------|--0--0-----5--7--7-----2--|--3--3-----3--7--7--6--5--|--0--0-----3--5--5-----2--|--3--3-----3--7--7--6--5--|--0--0-----------------2--|--3--3-----3--7--7--6--5--|
PM PM PM PM PM PM PM PM PM PM PM --------------------------|----------------------------|--------------------------|----------------------------|-----------5--7--7--------|----------------------------|--0--0-----5--7--7-----2--|--3--3-----3--10--10--9--9--|--0--0-----3--5--5-----2--|--3--3-----3--10--10--9--9--|--0--0-----------------2--|--3--3-----3--10--10--9--9--|
Pre Chorus 01:42--------------------------|--------------------------|--------------------------|--------------------------|--3--3--3--3--3--3--3--3--|--3--3--3--3--3--3--3--3--|--3--3--3--3--3--3--3--3--|--3--3--3--3--3--3--3--3--|--1--1--1--1--1--1--1--1--|--1--1--1--1--1--1--1--1--|--------------------------|--------------------------|
--------------------------|--------------------------|--------------------------|--------------------------|--5--5--5--5--5--5--5--5--|--5--5--5--5--5--5--5--5--|--5--5--5--5--5--5--5--5--|--5--5--5--5--5--5--5--5--|--3--3--3--3--3--3--3--3--|--3--3--3--3--3--3--3--3--|--------------------------|--------------------------|
--------------------------|--------------------------|--------------------------|--------------------------|--3--3--3--3--3--3--3--3--|--3--3--3--3--3--3--3--3--|--3--3--3--3--3--3--3--3--|--3--3--3--3--3--3--3--3--|--1--1--1--1--1--1--1--1--|--1--1--1--1--1--1--1--1--|--------------------------|--------------------------|
--------------------------|--------------------------|--------------------------|--------------------------|--5--5--5--5--5--5--5--5--|--6--6--6--6--6--6--6--6--|--5--5--5--5--5--5--5--5--|--7--7--7--7--7--7--7--7--|--3--3--3--3--3--3--3--3--|--4--4--4--4--4--4--4--4--|--------------------------|--------------------------|
Repeat Chorus
Intro3 02:10 --------------------------|---------------------------|--------------------------|---------------------------|--------------------------|---------------------------|--------------------------|-----2--3-----2--3---------|-----3--5-----3--5-----5--|---------------------------|--0--------0--------0-----|--3--------3--------3--3---|
--------------------------|----------------------------------|--------------------------|----------------------------------|--------------------------|----------------------------------|-----7--8-----7--8--------|----------------------------------|--------------------------|----------------------------------|--8--------8--------8--8--|--10--10--10--10--13--13--13--13--|
Brigde 02:18---------------------------|--------------------|-----------------------|---------------------------|--------------------|-----------------------|---------------------------|--------------------|-----------------------|------------------8~-------|--------------------|------------12~--------|------------------8~-------|--------------------|------------12~--------|--13--13--13--13--8~-------|--------------------|------------12~--------|
----------------------|----------------------|----------------------|----------------------|----------------------|----------------------|----------------------|----------------------|----------------------|----------------------|------------8~--------|----------------------|----------------------|------------8~--------|----------------------|----------------------|------------8~--------|----------------------|
-----------------------|----------------------|----------------------|-----------------------|----------------------|----------------------|-----------------------|----------------------|----------------------|------------12~--------|----------------------|------------8~--------|------------12~--------|----------------------|------------8~--------|------------12~--------|----------------------|------------8~--------|
----------------------|-----------------------|----------------------|----------------------|-----------------------|----------------------|----------------------|-----------------------|----------------------|----------------------|------------10~--------|----------------------|----------------------|------------10~--------|----------------------|----------------------|------------10~--------|----------------------|
PM PM PM PM PM PM PM PM PM PM PM PM PM PM PM PM PM PM PM ---------------------------------------------------------------------|---------------------------------------------------------------------|---------------------------------------------------------------------|---------------------------------------------------------------------|---------------------------------------------------------------------|-----0--0--0--0----0--0--0--0--3--3--3--3-3--3--3--3--8--8--8--8-----|
PM PM PM PM-----------------------|-----------------------|-----------------------|--------------5~-------|--------------5~-------|--8--8--8--8--5~-------|
Repeat Chorus Repeat Intro Final
--------------------------|--------------------------|--------------------------|--------------------------|--------------7--7-----7--|--7--7-----7--7--7-----7--|--------------7--7-----7--|--7--7-----7--7--7-----7--|--------------5--5-----5--|--5--5-----5--5--5-----5--|--------------------------|--------------------------|
--------------------------|--------------------------|--------------------------|--------------------------|--7--7--------7--7-----7--|--7--7-----7--7--7-----7--|--7--7--------7--7-----7--|--7--7-----7--7--7-----7--|--5--5--------5--5-----5--|--5--5-----5--5--5-----5--|--------------------------|--------------------------|
--------------------------|----------------------------|--------------------------|----------------------------|--7--7--------7--7-----7--|--7--7-----7--7--7-----(7)--|--7--7--------7--7-----7--|--7--7-----7--7--7-----(7)--|--5--5--------5--5-----5--|--5--5-----5--5--5-----(5)--|--------------------------|----------------------------|
Tap to rate this tab
 
# A B C D E F G H I J K L M N O P Q R S T U V W X Y Z