Paramore - Ignorance tab version 3

Okay so this is my very first tab :D
I really love the song and the tabs here don't seem to be the correct way
to play it. I decided to tab the way I play it, and I'm pretty 
sure it's accurate. Credit to Garage_Messiahx and doobidoo for the solo.
This is the lead guitar part played by Josh Farro.

Rate and comment!

Anyways, here it is. 
Hope you enjoy!

[Standard Tuning]

x = muted
* = palm muted


Intro

e|----------------------------------------------------------|B|-7-7--7-7--7---7-7--7-7--7---7-7--7-7--7---7-7--7-7--7----|G|-7-7--7-7--7---7-7--7-7--7---7-7--7-7--7---7-7--7-7--7----|D|-9-9--9-9--9---7-7--7-7--7---9-9--9-9--9---7-7--7-7--7----|A|-9-9--9-9--9---9-9--9-9--9---9-9--9-9--9---9-9--9-9--9----|E|-7-7--7-7--7---1010-1010-10--7-7--7-7--7---1010-1010-10---|
|----------------------------------------------------------||-3-3--3-3--3---3-3--3-3--3---3-3--3-3--3------------------||-4-4--4-4--4---x-x--x-x--x---4-4--4-4--4------------------||-5-5--5-5--5---4-4--4-4--4---5-5--5-5--5------------------||-5-5--5-5--5---5-5--5-5--5---5-5--5-5--5---55-44-7--------||-3-3--3-3--3-----------------3-3--3-3--3-----------2------|
Verse 1
e|---------------------------------------------------------------|B|---------------------------------------------------------------|G|---------------------------------------------------------------|D|-----9-----9--------9-----9--------9-----9--------9-----9------|A|---9-----9---9----9-----9---9----9-----9---9----9-----9---9----|E|-7--------------7--------------7--------------7----------------| * * * * * * * * * * * * * * * * * * * * * * * *
|------------------------------------------------------------------||------------------------------------------------------------------||------------------------------------------------------------------||------9------9----------9------9---------7-----7--------6-----6---||---10-----10---10----10-----10---10----5-----5---5----5-----5---5-||-0-----------------0-----------------3--------------3-------------| * * * * * * * * * * * * * * * * * * * * * * * *
|------------------------------------------------------------------||------------------------------------------------------------------||------------------------------------------------------------------||-----9--9---9--------9---9---9--------9--9---9--------9---9---9---||---9---9--9---9----9---9--9---9----9---9---9---9----9---9---9---9-||-7---------------7---------------7---------------7----------------| * * * * * * * * * * * * * * * * * * * * * * * * * * * * *
|-------------------------------------------------------------------------||-------------------------------------------------------------------------||-------------------------------------------------------------------------||------9----9----9----------9----9---9---------7---7-----------6---6------||---10---10---10---10----10---10---10--10-----5---5---5--5---5---5---5---5||-0-------------------0--------------------3-----------3---3-----------3--| * * * * * * * * * * * * * * * * * * * * * * * * * * * * * * * * *
Pre-Chorus
e|----------------------------------------------------------|B|----------------------------------------------------------|G|----------------------------------------------------------| D|---9--9---------9--9----------9--9---------9--9-----------|A|---------999----------999-----------999----------999------|E|-7------------7-------------7------------7----------------|
|----------------------------------------------------------------||----------------------------------------------------------------||----------------------------------------------------------------||--9--9------------9--9-------------7--7---------7--7------------||---------101010----------101010-----------555----------444------||-0---------------0----------------3------------3----------------| All that x2 then...
|-----------------------------------||-----------------------------------||-----------------------------------||-2-2-xxx-2-2--2-5------------------||-2-2-xxx-2-2--2-5------------------||-0-0-xxx-0-0--0-3------------------|
Chorus 1
e|----------------------------------------------------------|B|-7-7--7-7--7---7-7--7-7--7---7-7--7-7--7---7-7--7-7--7----|G|-7-7--7-7--7---7-7--7-7--7---7-7--7-7--7---7-7--7-7--7----|D|-9-9--9-9--9---7-7--7-7--7---9-9--9-9--9---7-7--7-7--7----|A|-9-9--9-9--9---9-9--9-9--9---9-9--9-9--9---9-9--9-9--9----|E|-7-7--7-7--7---1010-1010-10--7-7--7-7--7---1010-1010-10---|
|----------------------------------------------------------||-3-3--3-3--3---3-3--3-3--3---3-3--3-3--3------------------||-4-4--4-4--4---x-x--x-x--x---4-4--4-4--4------------------||-5-5--5-5--5---4-4--4-4--4---5-5--5-5--5------------------||-5-5--5-5--5---5-5--5-5--5---5-5--5-5--5---55-44-7--------||-3-3--3-3--3-----------------3-3--3-3--3-----------2------|
|------------------------------------------------------------||-77777777---7-7-7-7-7-7-7-7----77777777---7-7-7-7-7-7-7-7---||-77777777---7-7-7-7-7-7-7-7----77777777---7-7-7-7-7-7-7-7---||-99999999---7-7-7-7-7-7-7-7----99999999---7-7-7-7-7-7-7-7---||-99999999---9-9-9-9-9-9-9-9----99999999---9-9-9-9-9-9-9-9---||-77777777---1010101010101010---77777777---1010101010101010--|
|--------------------------------------------------||-33333333---33333333---33333333-------------------||-44444444---xxxxxxxx---44444444-------------------||-55555555---44444444---55555555-------------------||-55555555---55555555---55555555---55-44-7---------||-33333333--------------33333333------------2------|
Post chorus / refrain
e|-----------------------------------------------------------|B|-----------------------------------------------------------|G|-----------------------------------------------------------|D|---9--9---------9--9---------9--9------------7--7----------|A|---------999----------999----------101010----------555-----|E|-7------------7------------0---------------3---------------|
Verse 2 - Bit different to verse 1. Play it twice.
e|--------------------------------------------------------------------|B|--------------------------------------------------------------------|G|--------------------------------------------------------------------|D|-----9---9-----------9---9-----------9---9-----------9---9----------|A|---9---9---9---9---9---9---9---9---9---9---9---9---9---9---9---9----|E|-7-----------7---7-----------7---7-----------7---7-----------7------| * * * * * * * * * * * * * * * * * * * * * * * * * * * * * * * *
|----------------------------------------------------------------------||----------------------------------------------------------------------||----------------------------------------------------------------------||------9----9--------------9----9----------7---7-----------7---7-------||---10---10---10---10---10---10---10-----5---5---5---5---5---5---5---5-||-0--------------0----0----------------3-----------3---3-----------3---| * * * * * * * * * * * * * * * * * * * * * * * * * * * * * *
Pre-Chorus
e|----------------------------------------------------------|B|----------------------------------------------------------|G|----------------------------------------------------------| D|---9--9---------9--9----------9--9---------9--9-----------|A|---------999----------999-----------999----------999------|E|-7------------7-------------7------------7----------------|
|----------------------------------------------------------------||----------------------------------------------------------------||----------------------------------------------------------------||--9--9------------9--9-------------7--7---------7--7------------||---------101010----------101010-----------555----------444------||-0---------------0----------------3------------3----------------| x2 then...
|-----------------------------------||-----------------------------------||-----------------------------------||-2-2-xxx-2-2--2-5------------------||-2-2-xxx-2-2--2-5------------------||-0-0-xxx-0-0--0-3------------------|
Chorus 1 Bridge
e|--------------------------------------------|B|--------------------------------------------|G|----------------------------------9999------|D|-9--xx-xxx-xxx-xxx--2-xx-xx--5-xx-xxxx------|A|-9--xx-xxx-xxx-xxx--2-xx-xx--5-xx-7777------|E|-7--xx-xxx-xxx-xxx--0-xx-xx--3-xx-----------|
|--------------------------------------||--------------------------------------| |-------4444444------------------------| |-9--xx-xxxxxxx-2-xx-xx--5555555-------| |-9--xx-xxxxxxx-2-xx-xx--5555555-------| |-7--xx---------0-xx-xx--3333333-------|
Solo
|------------------------------------------------------------------------||-1515151515151515-14141414-12121212-7-7-7-7-7-7-7-7--8-8-8-8--7-7-7-7---||------------------------------------------------------------------------| |-1212121212121212-11111111-9-9-9-9--4-4-4-4-4-4-4-4--5-5-5-5--4-4-4-4---||------------------------------------------------------------------------||------------------------------------------------------------------------|
|-------------------------------------------------------------------------||-1515151515151515-14141414-17171717-1919191919191919-2222222222222222bv\-||-------------------------------------------------------------------------||-1212121212121212-11111111-14141414-1616161616161616-1919191919191919bv\-||-------------------------------------------------------------------------||-------------------------------------------------------------------------|
e|-----------------------------------|B|-----------------------------------|G|-----------------------------------|D|-2-2-xxx-2-2--2-5------------------|A|-2-2-xxx-2-2--2-5------------------|E|-0-0-xxx-0-0--0-3------------------|
Chorus 2
|------------------------------------------------------------||-77777777---7-7-7-7-7-7-7-7----77777777---7-7-7-7-7-7-7-7---||-77777777---7-7-7-7-7-7-7-7----77777777---7-7-7-7-7-7-7-7---||-99999999---7-7-7-7-7-7-7-7----99999999---7-7-7-7-7-7-7-7---||-99999999---9-9-9-9-9-9-9-9----99999999---9-9-9-9-9-9-9-9---||-77777777---1010101010101010---77777777---1010101010101010--|
|--------------------------------------------------||-33333333---33333333---33333333-------------------||-44444444---xxxxxxxx---44444444-------------------||-55555555---44444444---55555555-------------------||-55555555---55555555---55555555---55-44-7---------||-33333333--------------33333333------------2------|
|------------------------------------------------------------||-77777777---7-7-7-7-7-7-7-7----77777777---7-7-7-7-7-7-7-7---||-77777777---7-7-7-7-7-7-7-7----77777777---7-7-7-7-7-7-7-7---||-99999999---7-7-7-7-7-7-7-7----99999999---7-7-7-7-7-7-7-7---||-99999999---9-9-9-9-9-9-9-9----99999999---9-9-9-9-9-9-9-9---||-77777777---1010101010101010---77777777---1010101010101010--|
|----------------------------------------------------------||-3-3--3-3--3---3-3--3-3--3---3-3--3-3--3------------------||-4-4--4-4--4---x-x--x-x--x---4-4--4-4--4------------------||-5-5--5-5--5---4-4--4-4--4---5-5--5-5--5------------------||-5-5--5-5--5---5-5--5-5--5---5-5--5-5--5---55-44-7--------||-3-3--3-3--3-----------------3-3--3-3--3-----------2------|
Tap to rate this tab
 
# A B C D E F G H I J K L M N O P Q R S T U V W X Y Z