Ignorance tab ver. 4 with lyrics by Paramore for guitar @ Guitaretab

Paramore – Ignorance tab ver. 4

Disclaimer: This tab came from no other sources but watching live performances. I had to 
use my ear for some parts, but I still think this is very accurate.

Note: This is the lead guitar part.

Intro:|--------------------------------------------------------------------||-77-77-7--7-7--7-7--7---------------33-33-3-------------------------||-77-77-7--7-7--7-7--7------44-44-4--x--xx-x-44-44-4-----------------|2X|-99-99-9--7-7--7-7--7--2x--55-55-5--44-44-4-55-55-5-----------------||-99-99-9--9-9--9-9--9------55-55-5--55-55-5-55-55-5--55-44----------||-77-77-7--1010-1010-10-----33-33-3----------33-33-3--------5---2----|
Verse 1:(PALM MUTE)|-------------------------------||-------------------------------||-------------------------------||-----9-----9--------9-----9----|2x|---9-----9---9----9-----9---9--||-7--------------7--------------|
|----------------------------------------------------------------||----------------------------------------------------------------||----------------------------------------------------------------||------9---9--------9---9--------7----------7---7---7------------||---10--10--10---10--10--10----5----------5---5---5---5----------||-0------------0-------------3---------3-------------------------|
|-------------------------------||-------------------------------||-------------------------------||-----9---9--9--9---9---9--9----|2x|---9---9--9---9--9---9---9--9--||-7-----------------------------|
|----------------------------------------------------------------||----------------------------------------------------------------||----------------------------------------------------------------||-----9--9--9------9--9--9-------7-7-7----7-7-7------------------||---10-10-10-10--10-10-10-10----5-5-5-5--5-5-5-5-----------------||-0-------------0-------------3---------3------------------------|
|-------------------------------||-------------------------------||-------------------------------||---9-x-9----------9-x-9--------|2x|---------999------------999----||-7-------------7---------------|
|-------------------------------------------------------------||-------------------------------------------------------------||-------------------------------------------------------------||---9-x-9----------9-x-9----------7-x-7----------7-x-7--------||---------101010--------101010-----------555-------------555--||-0--------------0--------------3--------------3--------------|
|-----------------------||-----------------------||-----------------------||-22-xxx-2-2---2-5------||-22-xxx-2-2---2-5------||-00-xxx-0-0---0-3------|
Chorus:|--------------------------------------------------------------------||-77-77-7--7-7--7-7--7---------------33-33-3-------------------------||-77-77-7--7-7--7-7--7------44-44-4--x--xx-x-44-44-4-----------------||-99-99-9--7-7--7-7--7--2x--55-55-5--44-44-4-55-55-5-----------------||-99-99-9--9-9--9-9--9------55-55-5--55-55-5-55-55-5--55-44----------||-77-77-7--1010-1010-10-----33-33-3----------33-33-3--------5---2----|
|--------------------------------------------------------------------||-7777777----------------------------33-33-3-------------------------||-7777777-11111111111111----44-44-4--x--xx-x-44-44-4-----------------||-9999999-12121212121212-2X-55-55-5--44-44-4-55-55-5-----------------||-9999999-12121212121212----55-55-5--55-55-5-55-55-5--55-44----------||-7777777-10101010101010----33-33-3----------33-33-3--------5---2----|
"Ignorance is your new best friend"|-------------------------------||-------------------------------||-------------------------------||---9-x-9----------9-x-9--------|2x|---------999------------999----||-7-------------7---------------|
|-------------------------------------------------------------||-------------------------------------------------------------||-------------------------------------------------------------||---9-x-9--------9-x-9-----------7-x-7------------------------||--------101010--------101010-----------555-------------------||-0-------------0--------------3------------------------------|
REPEAT VERSE REPEAT CHORUS
"Ignorance is your new best friend"...|--------------------------------------||--------------------------------------||--------------------------------------||-9-xx-xxx-xxx-xxx2-xx-xxx5-xx-xxxx----||-9-xx-xxx-xxx-xxx2-xx-xxx5-xx-xxxx----||-7-xx-xxx-xxx-xxx0-xx-xxx3-xx-xxxx----|
|-----------------------------------||-----------------------------------||-----------------------------------||-9-xx-xxxxx-2-xx-xxx5--xx-xx-5555--||-9-xx-xxxxx-2-xx-xxx5--xx-xx-5555--||-7-xx-xxxxx-0-xx-xxx3--xx-xx-3333--|
Repeat chorus til the end.
Please rate this tab:
x1.0