Asteroid tab with lyrics by Passafire - Easy chords and tabs for guitar

Passafire – Asteroid tab

Song: Asteroid
Band: Passafire
Album: Submersible
Tabbed by: O-52-A-50-R

Intro:

|-----------------------------------------||-----------------------------------------||-------------------5-----4-----4---------||-----4-------4-----------------------3---||-----------------3---3-2---2-2---2-------||0~-2---2-0h2---2-------------------1---1-|
|---------------------------------------||---------------------------------------||-----------------5-----4---------------||---4-------4-----------------3-----3---||---------------3---3-2---2-------------||-2---2-0h2---2-------------1---1-1---1-|
|---------------------------------------||---------------------------------------||-----------------5-----4-----4---------||---4-------4-----------------------3---||---------------3---3-2---2-2---2-------||-2---2-0h2---2-------------------1---1-|
|-----------------------------------||-----------------------------------||----------------5-5-5-5-4-4-4-4----||---4-------4----5-5-5-5-4-4-4-4-3--||----------------3-3-3-3-2-2-2-2-3--||-2---2-0h2---2------------------1--|
|----------------------------------------xx-----||9-10p9-10p9-10p9-10p9-10p9~-------------xx-----||----------------------------------------xx-----||----------------------------2-0---0-----xx-----||--------------------------------3---4-2-xx0----||----------------------------------------xx—3-1-|
Verse
|5-5-5-5-5-5-5-5--8--8-7-7-1-1-1-1-||5-5-5-5-5-5-5-5-10-10-8-8-1-1-1-1-||----------------------------------||----------------------------------||----------------------------------||----------------------------------|
Some of you may confuse the bass in the background for the guitar because the bass has the melody. Anyway it is in too low of an octave to play on guitar so here it is for (an octave higher):
|-------------------------------------||-------------------------------------||------------------------------2-0----||--4-6-7---4-6-7-2-0---0-----3-----3--||4-------4-----------3---4-2----------||-------------------------------------|
Chorus:
|----------||7-7-7-7-7-| (repeat as necessary)|6-6-6-6-6-||----------||----------||----------|
|2-2-||3-2-||4-3-||4-4-||2-4-||2-2-|
Solo
|9-9-9----------------------------------||------10/12-10-12-13-12----10----10----||------11/13-------------10----10----10-||---------------------------------------| (2 times)|---------------------------------------||---------------------------------------|Bridge (2 mins 43 seconds into the song)
Transcribed to guitar from piano
|---------------0----------------||---------------------3----------||--2-4---2-4------4-----4----2-4-||4-----4-------------------4-----| (Repeat as necessary)|-------------3-----2------------||--------------------------------|
|----||----||2-1-||----||----||----|Ashes^
Chorus Version 2
|-----------------------------------------||-----------------------------------------||-------------------5-----4-----4---------||-----4-------4-----------------------3---||-----------------3---3-2---2-2---2-------||0~-2---2-0h2---2-------------------1---1-|
|----------------------------------||----------------------------------||-----------------5-----4----------||---4-------4-----------------3----||---------------3---3-2---2--------||-2---2-0h2---2-------------1---1--|
|---------------------------------------||---------------------------------------||-----------------5-----4---------------||---4-------4-----------------3-----3---||---------------3---3-2---2-------------||-2---2-0h2---2-------------1---1-1---1-|
|----------------------------------||----------------------------------||-----------------5-----4----------| (2 times)|---4-------4-----------------3----||---------------3---3-2---2--------||-2---2-0h2---2-------------1---1--|
Outro|-----------------------------------------||-----------------------------------------||-------------------5-----4-----4---------||-----4-------4-----------------------3---|(repeat as|-----------------3---3-2---2-2---2-------| necessary)|---2---2-0h2---2-------------------1---1-|_______
\Played |at same ___________________|time|----------------------------|/|9-10p9-10p9-10p9-10p9-10p9~-||----------------------------||----------------------------||----------------------------||----------------------------|
Low Guitar|---------------------------------------||---------------------------------------||---------------------------------------||---------------2-0---0-----0-----------||--0-2-3--0-2-3-----3---3-2---3-2-0-----||2-------2--------------------------3-1-|
|---------------------------------||---------------------------------||---------------------------------||---------------2-0---0-----------||--0-2-3--0-2-3-----3---3-2-0-----||2-------2--------------------3-1-|
|---------------------------------------||---------------------------------------||---------------------------------------||---------------2-0---0-----0-----------||--0-2-3--0-2-3-----3---3-2---3-2-0-----||2-------2--------------------------3-1-|
|---------------------------------||---------------------------------||---------------------------------||---------------------------------||--0-2-3--0-2-3—2p1p0-------------||2-------2------------2p1p0-------|
High Guitar
|------------------------------------------------||------------------------------------------------||------------------9-7----7------7---------------||--7-9-10---7-9-10-----10---10-9---10-9---7------||9--------9---------------------------------10-8-||------------------------------------------------|
|----------------------------------------||----------------------------------------||------------------9-7----7--------------||--7-9-10---7-9-10-----10--10-9---7------||9--------9-------------------------10-8-||----------------------------------------|
|------------------------------------------------||------------------------------------------------||------------------9-7----7------7---------------||--7-9-10---7-9-10-----10---10-9---10-9---7------||9--------9---------------------------------10-8-||------------------------------------------------|
|-------------------------------||-------------------------------||-------------------------------||--7-9-10---7-9-10-9p8p7--------||9--------9--------------9p8p7p-||-------------------------------|
Here's my attempt at the lyrics... This warning it missed her caution Calling in the morning cottage But which they bid on at the local auction Whether or not the other knew what the plot is The alarm goes off at 6 with covers a use Mister's unemployed and the other incluse Waiting for the asteroid he said, "What's the use?" Waiting for the asteroid... Waiting for the asteroid... Where are the repairs it's supposed to do Stared and tells the wife that he ahs no clue about screwdrivers or wrenches and how to build benches or fences he clenches his fist in frustration cause he's losing his patience with the longness it takes him Build a rail hammer and a nail His tailors suited him for failure Waiting for the asteroid... Waiting for the asteroid... Tired of the premonitions of danger Measures and plans and tinkers of anger Running up the stairs just to show his invention Tripping through the door with proud intentions Falling to the floor it sparks and smashes Suddenly they stand facing smoldering Ashes... Thsi warning it missed her caution To gather by the burning cottage With all of the neighbors watching They see that they've been holding eachother hostage Doesn't matter whose the fault is Things are gonna change regardless This warning it missed her caution To gather by the burning cottage
Please rate this tab:
x1.0