Patent Pending - Sleep Well My Angel tab

here's the whole song...
lots of fun and a good simple song.
it's all by ear and all correct.
the verse is hard to get the sustain
on the bend though,
but that's how it's played...

standard tuning
e
b
g
d
a
e

main riff. repeat 4 times

-------------------------------------------------------------|-------------------------------------------------------------|--5--5--4--5--------------5--4--5----------------------------|--5--5--4--5--5--3--3--5--5--4--5----------------------------|--3--3--2--3--5--3--3--5--3--2--3----------------------------|--------------3--1--1--3-------------------------------------|
then---------------------------------------------------------------|---------------------------------------------------------------|----- 5--------------------------------------------------------|--xx--5--------------------------------------------------------|--xx--3--------------------------------------------------------|--xx-----------------------------------------------------------|(" wake up...")
--------------------------------------------------------------------------------------------------------------------------------------------------------------------------------------------------------------------------------------------------------------3b--------------------------------------------------------------------------------------------------------------------------("burning")
---------------------------------------------------------------|---------------------------------------------------------------|----- 5--------------------------------------------------------|--xx--5--------------------------------------------------------|--xx--3--------------------------------------------------------|--xx-----------------------------------------------------------|("is cold")
verse-do full bends. for the 1st note you can also do E 8 so its easier to move, but it doesn't sound as good IMO. repeat 2X-------------------------------------------------------------|-------------------------------------------------------------|-------------------------------------------------------------|-----------9b------------------------------------------------|--3b--10b----------------------------------------------------|-------------------------------------------------------------|("tell you something")
do the verse and the part above it, bending accordingly..
the 2 quick notes at 58 seconds before the chorus are these:--12-----------------------------------------------------------|-----13--------------------------------------------------------|---------------------------------------------------------------|---------------------------------------------------------------|---------------------------------------------------------------|---------------------------------------------------------------|
chorus. repeat this twice-------------------------------------------------------------|-------------------------------------------------------------|--------------55555555---------------------------------------|--3333--5555--55555555---------------------------------------|--3333--5555--33333333---------------------------------------|--1111--3333-------------------------------------------------|
on the 3rd time of the chorus do this-
-------------------------------------------------------------|-------------------------------------------------------------|--------------555555--4--------------------------------------|--3333--5555--555555--4--3333--5-----------------------------|--3333--3333--333333--2--3333--5-----------------------------|--1111--3333-------------1111--3-----------------------------|
then do the main riff again twice-------------------------------------------------------------|-------------------------------------------------------------|--5555----44--5--------------5--4--5555----------------------|--5555----44--5--5--3333--5--5--2--5555----------------------|--3333----22--3--5--3333--3--3--2--3333----------------------|---------------- 3--1111--3----------------------------------|
then---------------------------------------------------------------|---------------------------------------------------------------|------5--------------------------------------------------------|--xx--5--------------------------------------------------------|--xx--3--------------------------------------------------------|--xx-----------------------------------------------------------|
--------------------------------------------------------------------------------------------------------------------------------------------------------------------------------------------------------------------------------------------------------------3b--------------------------------------------------------------------------------------------------------------------------("on purpose")
---------------------------------------------------------------|---------------------------------------------------------------|----- 5--------------------------------------------------------|--xx--5--------------------------------------------------------|--xx--3--------------------------------------------------------|--xx-----------------------------------------------------------|
and the verse again 2X-------------------------------------------------------------|-------------------------------------------------------------|-------------------------------------------------------------|-----------9b------------------------------------------------|--3b--10b----------------------------------------------------|-------------------------------------------------------------|
the notes before chorus at 1:42--12-----------------------------------------------------------|-----13--------------------------------------------------------|---------------------------------------------------------------|---------------------------------------------------------------|---------------------------------------------------------------|---------------------------------------------------------------|
then both parts of the chorus repeat this 2X
-------------------------------------------------------------|-------------------------------------------------------------|--------------55555555---------------------------------------|--3333--5555--55555555---------------------------------------|--3333--5555--33333333---------------------------------------|--1111--3333-------------------------------------------------|
on the 3rd time on the chorus do this-
-------------------------------------------------------------|-------------------------------------------------------------|--------------555555--4--------------------------------------|--3333--5555--555555--4--3333--5-----------------------------|--3333--3333--333333--2--3333--5-----------------------------|--1111--3333-------------1111--3-----------------------------|
bridge-repeat 12 times-------------------------------------------------------------|-------------------------------------------------------------|-----------444--55-------------------------------------------|--333--55--444--55-------------------------------------------|--333--55--222--33-------------------------------------------|--111--33----------------------------------------------------|
and the last lick is-
-------------------------------------------------------------|-------------------------------------------------------------|-------------------------------------------------------------|-------------------------------------------------------------|--3-2------------2-3-3---------------------------------------|------3-1-1--1-3---------------------------------------------|
fun song.
Tap to rate this tab
 
# A B C D E F G H I J K L M N O P Q R S T U V W X Y Z