Paul Gilbert - Technical Difficulties tab

Artist: Racer X/ Paul Gilbert
Song:   Technical Difficulties


Tuning: Standard

* = natural harmonics
h = hammer on
p = pull off
~ = vibrato
/ = dip note with bar
t = tap note with right hand
b=f(ull) = bend full
b 1 1/4 = bend one and one half steps i.e. E to F#
w/bar = dip or vibrato with tremolo bar



Gtr I|-----------|---------------------------------||-----------|---------------------------------||-----------|-0-------------------------------||-------2---|-------4-----5-----4---4-5-4---5-||-------5---|---3-3---3-3---3-3---3-------3---||-------5---|---------------------------------|
|
| Gtr II|-----------|---------------------------------||-----------|---------------------------------||-------0---|-0-------------------------------||-------0---|-------4-----5-----4---4-5-4---5-||-------0---|---3-3---3-3---3-3---3-------3---||-----------|---------------------------------|
Gtrs I, II|------------------------------------||------------------------------------||------------------------------------||-----4-----5---4-(4)---0-----10-----||-3-3---3-3---3-----------7-9----7-7-||---------------------7-8------------|
|---------------------------------||---------------------------------||-------5-----------------5-------||-9-----------9---7-9-7---------9-||---7-7---7-7---7-------7---7-7---||---------------------------------|
|-------------------------------||-------------------------------||-----5-------------0-----------||---------9-------2-------4-----||-7-7---7-----2-3-5---3-3---3-3-||-----------3-5-----------------|
|---------------------------------||---------------------------------||---------------------------------||-5-----4---4-5-4---5-----4-----5-||---3-3---3-------3---3-3---3-3---||---------------------------------|
|-------------------------------||-------------------------------||-------------5-----------5-----||---4---0-2-4-------9-----------||-3---2-3-------7-7---7-7---7-7-||-------------------------------|
|--------------------------------||--------------------------------||-------------5-----------5------||-9---7-9-7---------9---------9--||---7-------7---7-7---7-7---7----||--------------------------------|
Gtr I|------------------------------------|-------------------------------||----------0-5-----3-----5-----3---3-|-5-3---5-----3-----5-----3-----||-----0--2-4-------------------------|-----------------------------4-||-----4--------5-5---5-5---5-5---5---|-----5---5-5---5-5---5-5---5-7-||--7---------------------------------|-------------------------------||------------------------------------|-------------------------------|
|
| Gtr II|------------3-----2-----3-----2---2-|-3-2---3-----2-----3-----2-----||----------3---1-1---1-1---1-1---1---|-----1---1-1---1-1---1-1-----3-||----------7-------------------------|---------------------------4-5-||-----9-10---------------------------|-------------------------------||-10-12------------------------------|-------------------------------||------------------------------------|-------------------------------|
|------5-----3-----5-----3---2-3-2-|---5-----3-----5-----3--8--7-------||----3-----------------------------|--------------------------10--8--7-||-5--7---4-4---4-4---4-4---4-------|-4---4-4---4-4---4-4-------------9-||----------------------------------|-----------------------------------||----------------------------------|-----------------------------------||----------------------------------|-----------------------------------|
|
|------8-----7-----8-----7---5-7-5-|---8-----7-----8-----7-17-15-------||-5--7---------5-5---------5-------|-5---------5-5------------19-17-15-||---11---9-9---------9-9-----------|-----9-9---------9-9------------17-||----------------------------------|-----------------------------------||----------------------------------|-----------------------------------||----------------------------------|-----------------------------------|
*|--5-----------------3----------20-19----------||-----------7-----------------7----22-20-19-17-||----------------------------------------21----||----------------------------------------------||-----5--5-----5--5-----5--5-------------------||----------------------------------------------|
|
|-------------------------------17-15----------||----------------------------------19-17-15-13-||-16----------------16-------------------17----||----------19----------------19----------------||----17-17----17-17----17-17-------------------||----------------------------------------------|
|-------------------------------14-15-19-20-24--||-------16-------17-------16-15-17----22--------||-----------------------------------------------||-16-16----16-16----16-16-----------------------||-----------------------------------------------||-----------------------------------------------|
|
|-------------------------------10-12-15-17-20--||-------12-------13-------12-12-13----19----24--||-----------------------------------------------||-13-13----13-13----13-13-----------------------||-----------------------------------------------||-----------------------------------------------|
|-22-20----------20-------------------------------||----24-22-22-24-24-22-20-------------------------||----------24----------23-21-19----------19-------||----------------------------22-21-21-22-22-21-19-||----------------------------------24----------22-||-------------------------------------------------|
|
|-19-17-----------------------------3--5--7-------||----20-19-19-20-22-----------------7----10--8--7-||----------21----24-23-21-----------------------9-||----------------------24-22-21-------------------||----------------------------24-22----------------||-------------------------------------------------|
|---------------------------------||---------------------------------||---------------------------------||----------21-22-21----21-(21)----||-21-21-22-24----24-22-24-(24)----||----24---------------------------|
|
|-----------3--5--3-----3--(3)----||--------5--7-----7--5--7--(7)----||--7--7---------------------------||----10---------------------------||---------------------------------||---------------------------------|
|---------------------------------|-----------------------------------||---------------------------------|-----------------------------------||-0-------------------------------|-----------------------------5-----||-------4-----5-----4---4-5-4---5-|-----4-----5---4-(4)---0-2-4-------||---3-3---3-3---3-3---3-------3---|-3-3---3-3---3-------2-3-------7-7-||---------------------------------|-----------------------------------|
|
|---------------------------------|-----------------------------------||---------------------------------|-----------------------------------||---------------------------------|-----------------------------5-----||-5-----4-----5-----4---4-5-4---5-|-----4-----5---4-(4)---0-2-4-------||---3-3---3-3---3-3---3-------3---|-3-3---3-3---3-------2-3-------7-7-||---------------------------------|-----------------------------------|
Gtr I, Gtr II|---------------------------------|-------------------------------||---------------------------------|-------------------------------||-------5-----------------5-------|-----5-------------0-----------||-9-----------9---7-9-7---------9-|---------9-------2-------4-----||---7-7---7-7---7-------7---7-7---|-7-7---7-----2-3-5---3-3---3-3-||---------------------------------|-----------3-5-----------------|
|---------------------------------|-------------------------------||---------------------------------|-------------------------------||---------------------------------|-------------5-----------5-----||-5-----4---4-5-4---5-----4-----5-|---4---0-2-4-------9-----------||---3-3---3-------3---3-3---3-3---|-3---2-3-------7-7---7-7---7-7-||---------------------------------|-------------------------------|
Gtr I|-------------------------------|------------------------------------||-------------------------------|----------0-5-----3-----5-----3---3-||-------------5-----------5-----|-----0--2-4-------------------------||-9---7-9-7---------9---------9-|-----4--------5-5---5-5---5-5---5---||---7-------7---7-7---7-7---7---|--7---------------------------------||-------------------------------|------------------------------------|
|
| Gtr II|-------------------------------|------------3-----2-----3-----2---2-||-------------------------------|----------3---1-1---1-1---1-1---1---||-------------5-----------5-----|----------7-------------------------||-9---7-9-7---------9---------9-|-----9-10---------------------------||---7-------7---7-7---7-7---7---|-10-12------------------------------||-------------------------------|------------------------------------|
|-------------------------------|------5-----3-----5-----3---2-3-2-||-5-3---5-----3-----5-----3-----|----3-----------------------------||-----------------------------4-|-5--7---4-4---4-4---4-4---4-------||-----5---5-5---5-5---5-5---5-7-|----------------------------------||-------------------------------|----------------------------------||-------------------------------|----------------------------------|
|
|-3-2---3-----2-----3-----2-----|------8-----7-----8-----7---5-7-5-||-----1---1-1---1-1---1-1-----3-|-5--7---------5-5---------5-------||---------------------------4-5-|---11---9-9---------9-9-----------||-------------------------------|----------------------------------||-------------------------------|----------------------------------||-------------------------------|----------------------------------|
|---5-----3-----5-----3--8--7-------||--------------------------10--8--7-||-4---4-4---4-4---4-4-------------9-||-----------------------------------||-----------------------------------||-----------------------------------|
|
|---8-----7-----8-----7-17-15-------||-5---------5-5------------19-17-15-||-----9-9---------9-9------------17-||-----------------------------------||-----------------------------------||-----------------------------------|
|--5-----------------3----------20-19-----------||-----------7-----------------7----22-20-19-17--||----------------------------------------21-----||-----------------------------------------------||-----5--5-----5--5-----5--5--------------------||-----------------------------------------------|
|
|-------------------------------17-15-----------||----------------------------------19-17-15-13--||-16----------------16-------------------17-----||----------19----------------19-----------------||----17-17----17-17----17-17--------------------||-----------------------------------------------|
Outro|-------------------------------14-15-19-20-24-||-------16-------17-------16-15-17----22-------||----------------------------------------------||-16-16----16-16----16-16----------------------||----------------------------------------------||----------------------------------------------|
|
|-------------------------------10-12-15-17-20-||-------12-------13-------12-12-13----19----24-||----------------------------------------------||-13-13----13-13----13-13----------------------||----------------------------------------------||----------------------------------------------|
|-22-20----------20-------------------------------||----24-22-22-24-24-22-20-------------------------||----------24----------23-21-19----------19-------||----------------------------22-21-21-22-22-21-19-||----------------------------------24----------22-||-------------------------------------------------|
|
|-19-17-----------------------------3--5--7-------||----20-19-19-20-22-----------------7----10--8--7-||----------21----24-23-21-----------------------9-||----------------------24-22-21-------------------||----------------------------24-22----------------||-------------------------------------------------|
|-----------------------------------*||-----------------------------------*||-----------------------------------*||----------21-22-21----21-(21)------*||-21-21-22-24----24-22-24-(24)------*||----24-----------------------------*|
|
|-----------3--5--3-----3--(3)------*||--------5--7-----7--5--7--(7)------*||--7--7-----------------------------*||----10-----------------------------*||-----------------------------------*||-----------------------------------*|
Gtr solo
|-----------------------------|-------------------------||-15\-------------15-15b17----|-------------------------||-----9-12-14-17\-------------|-------------------------||-----------------------------|-------------------------||-----------------------------|-------14-17-19-12-14-17-||--------------------------12-|-15-17-------------------|
In the song, the tempo slows down a bit here, listen to the CD to get the timing just right.
|-------------------------|----------------||-------------------------|----------------||-------------------14-16-|-19-------------||-14-17-19-12-14-17-------|----17-19-21----||-------------------------|----------------||-------------------------|----------------|
Start picking up the pace right here.
|----------------17b19r17p15-17-||-------20-19b21----------------||-19-21-------------------------||-------------------------------||-------------------------------||-------------------------------|
|-22b24-22-20-19-20-20-19h20p|=19S17-19-17h19p17p15----||----------------------------|-------------------------||----------------------------|-------------------------||----------------------------|-------------------------||----------------------------|-------------------------||----------------------------|-------------------------|
|-17-15h17p15S14-15p14S12-|-14-------------12----------||-------------------------|----15-17-15b17----15-13-12-||-------------------------|----------------------------||-------------------------|----------------------------||-------------------------|----------------------------||-------------------------|----------------------------|
|-12-------------------------||----15p13p12-13-12----------||-------------------14-12----||----------------------------||----------------------------||----------------------------|
|----------------------------||----------------------------||----12-14b16r14p12-14p12----||-14----------------------14-||----------------------------||----------------------------|
|-------------------------|-------------------------||-------------------------|-19b21r19-17----17-------||-------------------------|-------------19----19----||-17--------9-14-17-16-14-|-------------------------||--------10---------------|-------------------------||----/12------------------|-------------------------|
|-------------------------|-------------------------||-19-15h19p15-------------|----------15-------------||-------------------------|-------------------------||-------------19p17p16----|-16h17h19----19p17p16----||----------------------17-|----------------------17-| |-------------------------|-------------------------|
|----------------------------||----------15----------------||----------------------------||-19p17p16----19p17p16-------||----------------------17----||----------------------------|
|-------------------------|-------------------------||----------15-19-15-17h19p|=17p15----15-17-15h17p15p||-------------------------|-------17----------------||-16h17h19----------------|-------------------------||-------------------------|-------------------------||-------------------------|-------------------------|
|-------------| |=13----13----||-------------||----17-------||-------------||-------------|
|----------------------------||----------------------------||----------------------------||-17-16-14-16-16b18r16p14----||-------------------------15-||----------------------------|
|-------------------------|----------------------------||-------------------------|-17-15p12-11h12-11----------||----------------14-15-16-|-------------------14p12----||----------14-17----------|----------------------------||-------17----------------|----------------------------||-15-17-------------------|----------------------------|
|-------------------------|-------------------12-------||-------------15-12-14h15p|=14p12-------15b17----15p13p||----12h14h16-------------|-------15-12----------------||-14----------------------|----------------------------||-------------------------|----------------------------||-------------------------|----------------------------|
|----------12-17-15-12-------17----||-12-15b17-------------19b21-------||----------------------------------||----------------------------------||----------------------------------||----------------------------------|
|-19-17p15----15-17b19-----------|-------------||----------17--------------------|-------------||----------------------15b17==15-|-15-15-15-15-||--------------------------------|-------------||--------------------------------|-------------||--------------------------------|-------------|
|--------------------------------|-------------------------||-----------------------17-19-20-|-19h20p19p17----17-19-20-||-15b17r15p13-15\----------------|-------------19----------||-----------------19b21----------|-------------------------||--------------------------------|-------------------------||--------------------------------|-------------------------|
|----------------||-19h20p19p17----||----------------||----------------||----------------||----------------|
|-------------------------|-------------------------||----17-19-17-19-17----17-|-20-19-20-19p17----17-19-||-19----------------19----|----------------19-------||-------------------------|-------------------------||-------------------------|-------------------------||-------------------------|-------------------------|
|-------------------------||-20-19h20p19p17----------||----------------19-------||-------------------21----||-------------------------||-------------------------|
Tap to rate this tab
 
# A B C D E F G H I J K L M N O P Q R S T U V W X Y Z