Pepper – Office tab

Song: Office
Band: Pepper
Tabbed By: O-52-A-50-R

The other tab for this song is good but I’m picky about two things:

*It’s tuned a half-step down and whether that’s correct or not, I HATE tuning my
guitar in alternative tunings

*It doesn’t include the riff played during the verses


So here it goes:


Intro

|4-4-x-x-x-7---4-4-4-4-4-4/6-6-6---||4-4-x-x-x-7---6-6-6-6-6-6/8-8-8---||5-5-x-x-x-8---6-6-6-6-6-6/8-8-8---||6-6-x-x-x-9---6-6-6-6-6-6/8-8-8---||6-6-x-x-x-9---4-4-4-4-4-4/6-6-6---||4-4-x-x-x-7---4-4-4-4-4-4/6-6-6---|
Verse (Riff I was talking about)
|----------------------------||9-9-9-7-7-7-9-9-9-6-6-8-8---||------------------6-6-8-8---||----------------------------||----------------------------||----------------------------| ^Reggae^
In the later verses this is played:
|------------11h12-11h12-11-||9-9-9-7-7-7----------------||---------------------------||---------------------------||---------------------------||---------------------------|
Chorus
|--------------||--7-----6-----||-8-8---7-7----||9---9-8---8---||--------------||--------------|
*Something to that effect ;) Alternatively play these chords:
|-7---6---||-7---6---||-8---7---||-9---8---||-9---8---||-7---6---|
Solo (I’m tabbing this on an acoustic so it might not be perfect but I think it’s pretty good)
|-----------------------------------------||-----------------------------------------||-6-6/8---4-4h6p4---4-3---3-3h4p3---3-1---||6----------------6---------------4-------||-----------------------------------------||-----------------------------------------|
|---------------2-0---0-----------------------------------||------4------------4---4-2-0-----------------------------||4-4-4---4-3333---------------3-1-3-1--1------------------||-------------------------------------4--4-1--------------||--------------------------------------------4-2-4-2-1----||------------------------------------------------------4--|
|---7----6----2-4--------------------------||-----------------/4-2p0-0-----------------||/7---/6---/4--------------3---------------||----------------------------4h6p4-4---4---||------------------------------------6-----||------------------------------------------|
|---------||2h4p2----||------3--||---------| (3x)|---------||---------|
|-------2-2/4-4-/6-6-7-6-7-/9-7-6---||2h4p2------------------------------||-----------------------------------||-----------------------------------||-----------------------------------||-----------------------------------|
Done :))))) I think the solo is about 85-95% correct. (Keep in mind mine is the only tab that has it :\)
Please rate this tab:
x1.0