Peps - Liberta tab version 1

I actually copy & pasted this tab from ABC-tabs.com, only because it wasn't on UG. The 
I copied said something at the top of it, but it was in a foreign language, so I didn't 
Have fun!

E||--------6-----------6-----|--------6-----------6-----|B||--6-----6-----6-----6-----|--6-----6-----6-----6-----|G||--6-----------6-----------|--6-----------6-----------|D||-----8-----8-----8-----6--|-----6-----6-----6-----6--|A||--------8-----------8-----|--9-----9-----------9-----|E||--6-----------6-----------|--------------6-----------|
--------6-----6-----6-----|--------------------6-----|--6-----6-----6-----6-----|--6-----------6-----6-----|--6-----------------------|--6-----------6-----------|-----6-----6-----6-----6--|-----6-----6-----6-----6--|--------8-----------8-----|--------6-----------6-----|--9-----------9-----------|--8-----------8-----------|
--------6-----------6-----|--------6-----------6-----|--6-----6-----6-----6-----|--6-----6-----6-----6-----|--6-----------6-----------|--6-----------6-----------|-----8-----8-----8-----6--|-----6-----6-----6-----6--|--------8-----------8-----|--9-----9-----------9-----|--6-----------6-----------|--------------6-----------|
--------6-----6-----6-----|-------------------|-----------6------------6---|--6-----6-----6-----6-----|--6----------------|-----6-----6------6-----6---|--6-----------------------|--6----------------|-----6-----6------6-----6---|-----6-----6-----6-----6--|-------------------|-----6------------6---------|--------8-----------8-----|-------------------|--------8----8-9-----9----8-|--9-----------9-----------|--8----------------|--6-------------------------|
-----------6------------6---|-----------6-----------6--|-----6-----6------6-----6---|-----6-----6-----6-----6--|-----6-----6------6-----6---|-----6-----6-----6-----6--|-----6------------6---------|-----6-----------6--------|--------8----6-------6----6-|--------8-----9-----9-----|--9------------8------------|--6-----------------------|
-----------6-----------6--|-----------6-----------6--|-----6-----6-----6-----6--|-----6-----6-----6-----6--|-----6-----6-----6-----6--|-----6-----6-----6-----6--|-----6-----------6--------|-----6-----------6--------|--------8-----------6-----|--------8-----9-----9-----|--9-----------8-----------|--6-----------------------|
-----------6-----------6--|-----------6-----------6--|-----6-----6-----6-----6--|-----6-----6-----6-----6--|-----6-----6-----6-----6--|-----6-----6-----6-----6--|-----6-----------6--------|-----6-----------6--------|--------8-----------6-----|--------8-----9-----9-----|--9-----------8-----------|--6-----------------------|
-----------6-----------6--|-----------6-----------6--|-----6-----6-----6-----6--|-----6-----6-----6-----6--|-----6-----6-----6-----6--|-----6-----6-----6-----6--|-----6-----------6--------|-----6-----------6--------|--------8-----------6-----|--------8-----9-----9-----|--9-----------8-----------|--6-----------------------|
-----------6-----------6--|-----------6-----------6--|-----6-----6-----6-----6--|-----6-----6-----6-----6--|-----6-----6-----6-----6--|-----6-----6-----6-----6--|-----6-----------6--------|-----6-----------6--------|--------8-----------6-----|--------8-----9-----9-----|--9-----------8-----------|--6-----------------------|
-----------6-----------6--|-----------6-----------6--|-----6-----6-----6-----6--|-----6-----6-----6-----6--|-----6-----6-----6-----6--|-----6-----6-----6-----6--|-----6-----------6--------|-----6-----------6--------|--------8-----------6-----|--------8-----9-----9-----|--9-----------8-----------|--6-----------------------|
-----------6-----------6--|-----------6-----------6--|-----6-----6-----6-----6--|-----6-----6-----6-----6--|-----6-----6-----6-----6--|-----6-----6-----6-----6--|-----6-----------6--------|-----6-----------6--------|--------8-----------6-----|--------8-----9-----9-----|--9-----------8-----------|--6-----------------------|
-----------6-----------6--|-----------6-----------6--|-----6-----6-----6-----6--|-----6-----6-----6-----6--|-----6-----6-----6-----6--|-----6-----6-----6-----6--|-----6-----------6--------|-----6-----------6--------|--------8-----------6-----|--------8-----9-----9-----|--9-----------8-----------|--6-----------------------|
-----------6-----------6--|-----------6-----------6--|-----6-----6-----6-----6--|-----6-----6-----6-----6--|-----6-----6-----6-----6--|-----6-----6-----6-----6--|-----6-----------6--------|-----6-----------6--------|--------8-----------6-----|--------8-----9-----9-----|--9-----------8-----------|--6-----------------------|
-----------6-----------6--|-----------6-----------6--|-----6-----6-----6-----6--|-----6-----6-----6-----6--|-----6-----6-----6-----6--|-----6-----6-----6-----6--|-----6-----------6--------|-----6-----------6--------|--------8-----------6-----|--------8-----9-----9-----|--9-----------8-----------|--6-----------------------|
-----------6-----------6--|-----------6-----------6--|-----6-----6-----6-----6--|-----6-----6-----6-----6--|-----6-----6-----6-----6--|-----6-----6-----6-----6--|-----6-----------6--------|-----6-----------6--------|--------8-----------6-----|--------8-----9-----9-----|--9-----------8-----------|--6-----------------------|
-----------6-----------6--|-----------6-----------6--|-----6-----6-----6-----6--|-----6-----6-----6-----6--|-----6-----6-----6-----6--|-----6-----6-----6-----6--|-----6-----------6--------|-----6-----------6--------|--------8-----------6-----|--------8-----9-----9-----|--9-----------8-----------|--6-----------------------|
-----------6--------------|-----------6-----------6--|-----6-----6--------------|-----6-----6-----6-----6--|-----6-----6--------------|-----6-----6-----6-----6--|-----6--------------------|-----6-----------6--------|--------8-----------------|--------8-----9-----9-----|--9-----------8-----8-9-8-|--6-----------------------|
-----------6-----------6--|-----------6-----------6--|-----6-----6-----6-----6--|-----6-----6-----6-----6--|-----6-----6-----6-----6--|-----6-----6-----6-----6--|-----6-----------6--------|-----6-----------6--------|--------8-----------6-----|--------8-----9-----9-----|--9-----------8-----------|--6-----------------------|
-----------6--------------|-----------6-----------6--|-----6-----6--------------|-----6-----6-----6-----6--|-----6-----6--------------|-----6-----6-----6-----6--|-----6--------------------|-----6-----------6--------|--------8-----------------|--------8-----9-----9-----|--9-----------8-----8-9-8-|--6-----------------------|
-----------6-----------6--|-----------6-----------6--|-----6-----6-----6-----6--|-----6-----6-----6-----6--|-----6-----6-----6-----6--|-----6-----6-----6-----6--|-----6-----------6--------|-----6-----------6--------|--------8-----------6-----|--------8-----9-----9-----|--9-----------8-----------|--6-----------------------|
-----------6-----------6--|-----------6-----------6--|-----6-----6-----6-----6--|-----6-----6-----6-----6--|-----6-----6-----6-----6--|-----6-----6-----6-----6--|-----6-----------6--------|-----6-----------6--------|--------8-----------6-----|--------8-----9-----9-----|--9-----------8-----------|--6-----------------------|
-----------6--------------|-------------|-----------6-----------6--|-----6-----6--------------|-------------|-----6-----6-----6-----6--|-----6-----6--------------|-------------|-----6-----6-----6-----6--|-----6--------------------|-------------|-----6-----------6--------|--------8-----------------|-------------|--------8-----9-----9-----|--9-----------8-----8-9-8-|-------8-9-8-|--6-----------------------|
-----------6-----------6--|-----------6-----------6--|-----6-----6-----6-----6--|-----6-----6-----6-----6--|-----6-----6-----6-----6--|-----6-----6-----6-----6--|-----6-----------6--------|-----6-----------6--------|--------8-----------6-----|--------8-----9-----9-----|--9-----------8-----------|--6-----------------------|
-----------6--------------|-------------|-----------6-----------6--|-----6-----6--------------|-------------|-----6-----6-----6-----6--|-----6-----6--------------|-------------|-----6-----6-----6-----6--|-----6--------------------|-------------|-----6-----------6--------|--------8-----------------|-------------|--------8-----9-----9-----|--9-----------8-----8-9-8-|-------8-9-8-|--6-----------------------|
-----------6-----------6--|-----------6-----------6--|-----6-----6-----6-----6--|-----6-----6-----6-----6--|-----6-----6-----6-----6--|-----6-----6-----6-----6--|-----6-----------6--------|-----6-----------6--------|--------8-----------6-----|--------8-----9-----9-----|--9-----------8-----------|--6-----------------------|
-----------6-----------6--|-----------6-----------6--|-----6-----6-----6-----6--|-----6-----6-----6-----6--|-----6-----6-----6-----6--|-----6-----6-----6-----6--|-----6-----------6--------|-----6-----------6--------|--------8-----------6-----|--------8-----9-----9-----|--9-----------8-----------|--6-----------------------|
-----------6-----------6--|-----------6-----------6--|-----6-----6-----6-----6--|-----6-----6-----6-----6--|-----6-----6-----6-----6--|-----6-----6-----6-----6--|-----6-----------6--------|-----6-----------6--------|--------8-----------6-----|--------8-----9-----9-----|--9-----------8-----------|--6-----------------------|
-----------6--------------|-----------6-----------6--|-----6-----6--------------|-----6-----6-----6-----6--|-----6-----6--------------|-----6-----6-----6-----6--|-----6--------------------|-----6-----------6--------|--------8-----------------|--------8-----9-----9-----|--9-----------8-----8-9-8-|--6-----------------------|
-----------6-----------6--|-----------6-----------6--|-----6-----6-----6-----6--|-----6-----6-----6-----6--|-----6-----6-----6-----6--|-----6-----6-----6-----6--|-----6-----------6--------|-----6-----------6--------|--------8-----------6-----|--------8-----9-----9-----|--9-----------8-----------|--6-----------------------|
----------------------------|-----------6-----------6--|-----6-----------6------6---|-----6-----6-----6-----6--|-----6-----------6----6---6-|-----6-----6-----6-----6--|-----6-----------6--6-------|-----6-----------6--------|--------8--8----------6-----|--------8-----9-----9-----|--9-----------8-------------|--6-----------------------|
-----------6-----------6--|-----------6-----------6--|-----6-----6-----6-----6--|-----6-----6-----6-----6--|-----6-----6-----6-----6--|-----6-----6-----6-----6--|-----6-----------6--------|-----6-----------6--------|--------8-----------6-----|--------8-----9-----9-----|--9-----------8-----------|--6-----------------------|
-----------6--------------|-------------|------------6--------------||-----6-----6--------------|-------------|----------6----------------||-----6-----6--------------|-------------|--------6------------------||-----6--------------------|-------------|------6--------------------||--------8-----------------|-------------|----8----------------------||--9-----------8-----8-9-8-|-------8-9-8-|--6------------------------||
Tap to rate this tab
 
# A B C D E F G H I J K L M N O P Q R S T U V W X Y Z