Perfect Circle - Judith tab

Artist:   A Perfect Circle
Song:     Judith
Album:    Mer De Noms

pm.: Palm Mute
^:   Bend
h:   Hammer-on
/:   Slide Forward
\:   Slide Backward
~:   Let Note Ring (Vibrato)
():  Ghost Note

Drop D tuning, tune down 1 1/2 step (B F# B E G# C#)

Intro
 
|---------------------------------------------||---------------------------------------------||-7/9-9-9-x-x-7/9-10\9-7/9---7/9-9-9/19-19-18-||-x---x-x-x-x-x---x----x-----x---x-x-x--x--x--||-5/7-7-7-x-x-5/7-8 \7-5/7---5/7-7-7/17-17-16-||---------------------------------------------| x2
|--------------------------------------------||-7h9-9-9-9-9-7h9-10\9-7h9-7h9-9-9-9-7-------||--------------------------------------5-5-5-||--------------------------------------------||--------------------------------------------||--------------------------------------------| x2w/delay & reverb
|------------------------||------------------------||------------------------||------------------------||-10\5/7-7---7^~~(7)-5\7-||------------------------|grad. bend 1/2 step
Verse
|-------------------------------------------||-------------------------------------------||-------------------------------------------||-------------------------------------------||-0-2-2-2---2-0-2-3-2-0-2-0-2-2-2-2-0-5-5-5-||-0-2-2-2---2-0-2-3-2-0-2-0-2-2-2-2-0-5-5-5-| x3p.m.........................................
|---------------------------------------------||---------------------------------------------||---------------------------------------------||-------------------------------------5-5-5/7-||-0-2-2-2---2-0-2-3-2-0-2-0-2-2-2-2-0-5-5-5/7-||-0-2-2-2---2-0-2-3-2-0-2-0-2-2-2-2-0-5-5-5/7-| x4p.m..................................|
|--------------------------------------------||--------------------------------------------||--------------------------------------------||--------------------------------------------||-0-2-2-2---2-0-2-3-2-0-2-0-2-2-2-2-0--------||-0-2-2-2---2-0-2-3-2-0-2-0-2-2-2-2-0-5-5^-2-|p.m..................................|bend 1 1/2 step
Chorus
|--------------------------------------||--------------------------------------||-15--15-15-15/14-14-14/9--9-9-9^-9^-9-||-x---x--x--x-----x--x--x--x-x-x-----x-||-13--13-13-13/12-12-12/7--7-7-7^-7^-7-||--------------------------------------| x3bend 1/2 step
|---------------------------------||---------------------------------||-/14---13---16-16-16-16-16/19-11-||--x----x----x--x--x--x--x-----x--||-/12---11---14-14-14-14-14/17-9--||---------------------------------|
|-------------17---17-17\----------15---15-15\----------17---17-17\15--|-5/17---17-------------/15---15-------------/17---17-------------\15--|----------------------------------------------------------------------|----------------------------------------------------------------------|----------------------------------------------------------------------|----------------------------------------------------------------------
------15---15-15\----------17---17-17\15--------/19---(19)/20-|-15-------------/17---17-------------/15---15-----------------|--------------------------------------------------------------|--------------------------------------------------------------|--------------------------------------------------------------|--------------------------------------------------------------|
|------------------------------------------||-/12-12-12-12-12/15-10---10---9---9/10----||---------------------------------------9\-||------------------------------------------||------------------------------------------||------------------------------------------|
|--------------------------------------------------------------|-/15---15\14-14\----------------------------15\14-14---(14)\--|-/15---------14\9---9-9-9/10\9---9-9-9/15---------14---(14)\--|--------------------------------------------------------------|--------------------------------------------------------------|--------------------------------------------------------------
---------------------------------------------------------------------|------------------------/15---------14---14\-------------------------|-/9---9-9-9/10\9---9-9-9/15---15\14-14---14\---/9---9-9-9/10\9/7\9\7-|-----------------------------------------------/9---9-9-9/10\9/7\9\7-|---------------------------------------------------------------------|---------------------------------------------------------------------|
Solo
|-10h12-12-12---10h12/17\12-10h12-10h12-12-12-12-10-7-7-7-||---------------------------------------------------------||---------------------------------------------------------||---------------------------------------------------------||---------------------------------------------------------||---------------------------------------------------------| x2w/digitech Whammy pedal
|------------------------------------------------------------||-14-15~~~14---15---15---(15)\/15---15-15-15^----------------||---------------------------------------------14---14-14-14^-||------------------------------------------------------------||------------------------------------------------------------||------------------------------------------------------------|bend 1 step
|---------------------------------------------||---------------------------------------------||------------------------------------19-19-18-||-7/9-9-9-----7/9-10\9-7/9---7/9-9-9/x--x--x--||-5/7-7-7-7-7-5/7-8 \7-5/7---5/7-7-7/17-17-16-||---------------------------------------------| x2
|---------------------------------------------||---------------------------------------------||---------------------------------------------||-------------------------------------5-5-5/7-||-0-2-2-2---2-0-2-3-2-0-2-0-2-2-2-2-0-5-5-5/7-||-0-2-2-2---2-0-2-3-2-0-2-0-2-2-2-2-0-5-5-5/7-|p.m..................................|
|-------------------------------------------||-------------------------------------------||-------------------------------------------||---------------------------------------5---||-0-2-2-2---2-0-2-3-2-0-2-0-2-2-2-2-0-------||-0-2-2-2---2-0-2-3-2-0-2-0-2-2-2-2-0/5---2-|p.m......................|
|--------------------------------------||--------------------------------------||-15--15-15-15/14-14-14/9--9-9-9^-9^-9-||-x---x--x--x-----x--x--x--x-x-x-----x-||-13--13-13-13/12-12-12/7--7-7-7^-7^-7-||--------------------------------------| x3bend 1/2 step
|---------------------------------||---------------------------------||-/14---13---16-16-16-16-16/19-11-||--x----x----x--x--x--x--x-----x--||-/12---11---14-14-14-14-14/17-9--||---------------------------------|
|-------------17---17-17\----------15---15-15\----------17---17-17\------|-5/17---17-------------/15---15---------------/17---17-------------/15--|------------------------------------------------------------------------|------------------------------------------------------------------------|------------------------------------------------------------------------|------------------------------------------------------------------------
------15---15-15\----------17---17-17\----------/19---(19)/20---|-15-------------/17---17---------------/15---15-----------------|----------------------------------------------------------------|----------------------------------------------------------------|----------------------------------------------------------------|----------------------------------------------------------------|
|----------------------------------------------||-/12-12-12-12-12/15-10---10-10--9---9-9/10----||-------------------------------------------9\-||----------------------------------------------||----------------------------------------------||----------------------------------------------|
|----------------------------------------------|-/17-17-17-17-17\15-15-15-15-15/19-19/20-17\--|----------------------------------------------|----------------------------------------------|----------------------------------------------|----------------------------------------------
-----------------------------------------------------------------------/17---17\15-15-15-15/20\12-12-12-12---12\10-10-10-10/17-17-17-17-17------------------------------------------------------------------------------------------------------------------------------------------------------------------------------------------------------------------------------------------------------------------------------------------
---------------------------|-17\15-15-15-15/19-(19)/24-|---------------------------|---------------------------|---------------------------|---------------------------|
|----------------------------------------------------||----------------------------------------------------||-16-16-16-16/19-14-14-14-14\13---13---13-13/14-9-9\-||-x--x--x--x-----x--x--x--x-------x----x--x-----x-x--||-14-14-14-14-17-12-12-12-12\11---11---11-11/12-7-7\-||----------------------------------------------------|
|--------------------------------------------|-/17---17\15---/19---(19)/20-17---(17)\/17--|--------------------------------------------|--------------------------------------------|--------------------------------------------|--------------------------------------------
-/17-17-17-17-17---17\15-15-15-15---/19---(19)/24--|---------------------------------------------------|---------------------------------------------------|---------------------------------------------------|---------------------------------------------------|---------------------------------------------------|
|----------------------------------------------------||----------------------------------------------------||-16-16-16-16/19-14-14-14-14\13---13---13-13/14-9-9\-||-x--x--x--x-----x--x--x--x-------x----x--x-----x-x--||-14-14-14-14-17-12-12-12-12\11---11---11-11/12-7-7\-||----------------------------------------------------| x3
|-----------------------------------------------||-----------------------------------------------||-16-16-16-16/19-14-14-14-14\13-13-13-14-/12~~~-||-x--x--x--x-----x--x--x--x--x--x--x--x--/12~~~-||-14-14-14-14-17-12-12-12-12\11-11-11-12--------||-----------------------------------------------|
Tap to rate this tab
 
# A B C D E F G H I J K L M N O P Q R S T U V W X Y Z