Perfect Circle - 3 Libras tab

Intro:
|----------------------------------------------------------------

|--3-----3--3-----3--3-----3/7-----7\3-----3--3-----3/10------10\-|----0--------0--------0-------0-------0--------0--------0--------|-----------------------------------------------------------------|--3---3----3---3----3---3--/7---7--\3---3----3---3--/10---10--\--|-----------------------------------------------------------------
|------------------------------------------------------------|--7-----7\3-----3--3-----3--3-----3/7-----7\3-----3--3-----3/|----0-------0--------0--------0-------0-------0--------0----|------------------------------------------------------------|--7---7--\3---3----3---3----3---3--/7---7--\3---3----3---3--/|------------------------------------------------------------
|------------------------------------------------0-----||--10------10\7-----7/8-----8--8-----8--8-----8--8-----||-----0---------0-------0--------0--------0------0-----||------------------------------------------------0-----||--10---10---\7---7--/8---8----8---8----8---8----8-----||------------------------------------------------------|
Verse: Repeat 4x end of 4th time|----------------------------------------|-----------||--3-----3--3-----3--5-----5--6-----6----|--7-----7--||----0---------0-------0--------0--------|----0------||----------------------------------------|-----------||--3---3-------------5---5---------------|--7---7----||-----------3---3-------------6---6------|-----------|
|-----------------------------------------------------------------|--3-----3--3-----3--3-----3/10-----10\7-----7--7-----7--7-----7--|----0--------0--------0--------0--------0--------0--------0------|-----------------------------------------------------------------|--3---3----3---3----3---3--/10---10--\7----7---7---7----7---7----|-----------------------------------------------------------------
|----------------------------------------------------------------|--7-----7\3-----3--3-----3--3-----3/10-----10\7-----7--7-----7--|----0-------0--------0--------0--------0--------0--------0------|----------------------------------------------------------------|--7---7--\3---3----3---3----3---3--/10---10--\7---7----7---7----|----------------------------------------------------------------
|-----------0--||--8-----8--8--||----0------0--||-----------0--||--8---8----8--||--------------|
Chorus:|----------------------------------------||----------------------6-6-6-6-----------||----------------------5-5-5-5-----------||--5--5-5-5--5--5-5-5--3-3-3-3--6-6-6-6--||--5--5-5-5--5--5-5-5--3-3-3-3--6-6-6-6--||--3--3-3-3--3--3-3-3-----------4-4-4-4--|
|----------------------------------------------------------------|--3-----3--3-----3--3-----3/7-----7\3-----3--3-----3/10------10|----0--------0--------0-------0-------0--------0--------0-------|----------------------------------------------------------------|--3---3----3---3----3---3--/7---7--\3---3----3---3--/10---10---|----------------------------------------------------------------
|------------------------------------------------------------|--7-----7\3-----3--3-----3--3-----3/7-----7\3-----3--3-----3/|----0-------0--------0--------0-------0-------0--------0----|------------------------------------------------------------|--7---7--\3---3----3---3----3---3--/7---7--\3---3----3---3--/|------------------------------------------------------------
|--------------------------------------------------||--10------10\7-----7/8-----8--8-----8--8-----8----||-----0---------0-------0--------0--------0--------||--------------------------------------------------||--10---10---\7---7--/8---8----8---8----8---8------||--------------------------------------------------|
|-----------------------------------------------------------------|-----------------------------------------------------------------|--9-9-9-9\7-7-7-7-7-7-7-7-7-7-7-7-7/9-9-9-9-9-9-9-9-9-9-9-9-9---|--9-9-9-9\7-7-7-7-7-7-7-7-7-7-7-7-7/9-9-9-9-9-9-9-9-9-9-9-9-9---|--7-7-7-7\5-5-5-5-5-5-5-5-5-5-5-5-5/7-7-7-7-7-7-7-7-7-7-7-7-7---|-----------------------------------------------------------------
|-------------------------------------------------------||-------------------------------------------------------||--7-7-7-7-7-7-7-7-7-7-7-7-7/9-9-9-9-9-9-9-9-9-9-9-9-9--||--7-7-7-7-7-7-7-7-7-7-7-7-7/9-9-9-9-9-9-9-9-9-9-9-9-9--||--5-5-5-5-5-5-5-5-5-5-5-5-5/7-7-7-7-7-7-7-7-7-7-7-7-7--||-------------------------------------------------------|
Outro:|-----------------------------------------||-----------------------------------------||-9--7--9--7--9--11--16--19--11--9--7--12-||-----------------------------------------||-7--5--7--5--7---9--14--17---9--7--5--10-|
Tap to rate this tab
 
# A B C D E F G H I J K L M N O P Q R S T U V W X Y Z