Periphery - Icarus Lives tab

Artist: Periphery
Song: Icarus Lives
Album: Periphery
Tabbed by drawnacrol
Tuning: Half Step Down D# G# C# F# A# D#
Cover Video: http://www.youtube.com/watch?v=Ftl7RxvnZgU

Guitar Solo:

|-----------------------------------------------------------------------------||------------10b--------------------------------------------------------------||--12b13r12------10~--12/17--14b-----------14\10----------------10--12b13r12--||--------------------------------15-----15-------12----------12---------------||------------------------------------17-------------13p10-13------------------||-----------------------------------------------------------------------------|
|-----------------------------------------------------------------||--------------------------------------------------10-6--------6--||-10--12--------------------10-10-10-10-7--------7------8-7-8-----||-----------------------------------------8-7-8-------------------||---------13--8/10------------------------------------------------||------------------13--11-----------------------------------------|
|-10/13---------13/15---------10--15------------------------18\--||-------10--11--------10--11-------------15---------18-----------||------------------------------------10-----------------15-------||--------------------------------------------10/15---------------||----------------------------------------------------------------||----------------------------------------------------------------|
|----------------------------------------------------------------||--11--11--------------------------------------------------------||--10--8--7h8p7---------------------10h12------------------------||----------------8---------8h10/12-------------------------------||---------------------8h10----------------12---h13p12p10---------||---------------------------------------------------------13-11--|
|---------------------------------13/15---||---------------------11-------11---------||--------------10/12-----10h11------------||-----------8-----------------------------||-----8h10--------------------------------||--11-------------------------------------|
|--t16p11------------------------------------||----------h14-------------t15p11------------||---------------t16p11h12----------h12-------||---------------------------------------t11--||--------------------------------------------||--------------------------------------------|
Guitar Solo in E standard tuning: E A D G B E
|-------------------------------------------------------------------------||------------9b-----------------------------------------------------------||--11b12r11------9~--11/16--13b---------13\9-----------------9--11b12r11--||-------------------------------14----14-----11-----------11--------------||-----------------------------------16-----------12p9--12-----------------||-------------------------------------------------------------------------|
|-----------------------------------------------------------||---------------------------------------------9-5--------5--||-9--11--------------------9-9-9-9-6--------6------7-6-7----||------------------------------------7-6-7------------------||--------12--7/9--------------------------------------------||-----------------12--10------------------------------------|
|--9/12---------12/14---------9---14----------------------17\--||--------9--10---------9--10-------------14-------17-----------||-------------------------------------9---------------14-------||-------------------------------------------9/14---------------||--------------------------------------------------------------||--------------------------------------------------------------|
|-------------------------------------------------------------||--10--10-----------------------------------------------------||--9---7--6h7p6-----------------9h11--------------------------||----------------7-------7h9/11-------------------------------||--------------------7h9--------------11---h12p11p9-----------||----------------------------------------------------12-10----|
|-----------------------------12/14---||------------------10------10---------||------------9/11-----9h11------------||----------7--------------------------||------7h9----------------------------||--10---------------------------------|
|--t15p10------------------------------------||----------h13-------------t14p10------------||---------------t15p10h11----------h11-------||---------------------------------------t10--||--------------------------------------------||--------------------------------------------|
Tap to rate this tab
 
# A B C D E F G H I J K L M N O P Q R S T U V W X Y Z