Just The Way You Are tab with lyrics by Pierce The Veil - Easy chords and tabs for guitar

Pierce The Veil – Just The Way You Are tab

Drop D tuning (E B G D A D)

* = pinch (artificial) harmonic
^ = bend, note in parenthesis is the note you are supposed to reach with the bend
~ = vibrato
() = trill

|------------------------------------------------------------||-------------------15^(17)-15~--15-17-18-13-17-13-----------||---------------------------------------------------15~------||-3------3-----0---------------------------------------------||-3------3-----0---------------------------------------------||-3------3-8*--0---------------------------------------------|
|------------------------------------------------||------------------------------------------------||------------------------------------------------||-(7-8)--------(7-8)--(5-7)--3~------------------||------------------------------------------------||------------------------------------------------|
|----------------------------------------------------------------------||----------------------------------------------------------------------||-101010101010101010101010101010101010101010999977777777777777777777---||--------------------------------------------------------------------8-||-8-8-8-8-8-8-8-8-8-8-8-8-8-8-8-8-8-8-8-8-8-777755555555555555555555-8-||--------------------------------------------------------------------8-|
pm . . . . . . . . . . . . . . . . . . . . . . . . . . . . . . . . . . . . . . . . .
|------------------------------------------------------------------------------------||------------------------------------------------------------------------------------||------10-10-9-9-----------10-10-9-9------------10-10-9-9------------10-10-9-9-------||----------------10-10---------------10-10----------------10-10----------------10-10-||--8-8------------------8-8-----------------8-8------------------8-8-----------------||------------------------------------------------------------------------------------|
. . . . . . . . . . . . . . . . . . . . .
|-----------------------------------------------------------------------||------10-10-8-8------------10-10-8-8-----------------------------------||---------------10-10-----------------10-10-----10-9----12-10-9-10~-----||---------------------------------------------------10------------------||--8-8------------------8-8------------------8--------------------------||-----------------------------------------------------------------------|
|----------------------------------------------------------||----------------------------------------------------------||------------------77-7--7-77--77-7--7-7-10-9--------------||-3333333333333333----------------------------10-8\--------||-3333333333333333-55-5--5-55--55-5--5-5-8--7--------------||-3333333333333333----------------------------10-8\--------|
|------------------------------------------------||------------------------------------------------||-10-9-----10-9----101010101010101010101010------||------10-------10-------------------------------||------------------------------------------------||------------------------------------------------|
chorus
|-------------------------------------------------||-------------------------------------------------||-14-14-14-14-14-14-14-14-14-14-14-14-12-12-15-15-||-------------------------------------------------||-12-12-12-12-12-12-12-12-12-12-12-12-10-10-13-13-||-------------------------------------------------|
|-------------------------------------------------||-------------------------------------------------||-10-10-10-10-10-10-10-10-10-10-10-10-12-12-12-15-||-------------------------------------------------||-8--8--8--8--8--8--8--8--8--8--8--8--10-10-10-13-||-------------------------------------------------|
pm . . . . . . . .
|-------------------------------------|------------------------------------------||-------------------------------------|------6-5-------6-5-------6-5-------6-5---||-7-7-7-7-7-7-7-7-7-7-7-7-10-10-12-12-|----------5---------5---------5---------5-||-------------------------------------|------------------------------------------||-5-5-5-5-5-5-5-5-5-5-5-5-8--8--10-10-|--3-3-------3-3-------3-3-------3-3-------||-------------------------------------|--3-3-------3-3-------3-3-------3-3-------|
|-------------------------------------------------||-------------------------------------------------||-14-14-14-14-14-14-14-14-14-14-14-14-12-12-15-15-||-------------------------------------------------||-12-12-12-12-12-12-12-12-12-12-12-12-10-10-13-13-||-------------------------------------------------|
|-------------------------------------------------||-------------------------------------------------||-10-10-10-10-10-10-10-10-10-10-10-10-12-12-12-15-||-------------------------------------------------||-8--8--8--8--8--8--8--8--8--8--8--8--10-10-10-13-||-------------------------------------------------|
|-------------------------------------|------------------------------------------------------||-------------------------------------|----------------------------11-10-11-13-11-10-11-13~--||-7-7-7-7-7-7-7-7-7-7-7-7-10-10-12-12-|-14-14-14-15-17-17-17-15-14---------------------------||-------------------------------------|------------------------------------------------------||-5-5-5-5-5-5-5-5-5-5-5-5-8--8--10-10-|-12-12-12-13-15-15-15-13-12---------------------------||-------------------------------------|------------------------------------------------------|
her lips, her lips, I could Kiss them all if she'd let me|--------------------------------------------------------||--------------------------------------------------------||---------------------------10\--------------------------||--------------------------------------------------------||---------------------------8-\---------------------17\--||--------------------------------------------------------|
Her laugh, her laugh She hates but i think it's so sexy|---------------------------------------------------------------------||---------------------------------------------------------------------||-10-10-10-9-9-9-5--10-10-10-9-9-9-5--1414141414141414-10-10-10-7-7-7-||---------------------------------------------------------------------||-8--8--8--7-7-7-3--8--8--8--7-7-7-3--1212121212121212-8--8--8--5-5-5-||---------------------------------------------------------------------|
She's so beautiful and i tell her everyday|--------------------------------------------------------------||--------------------------------------------------------------||------------------------------------------14--12--10-9-10-14--||--------------------------------------------------------------||------------------------------------------12--10--8--7-8--10--||--------------------------------------------------------------|
|--------------------------------------------------------------------||--------------------------------------------------------------------||-14---14---14---14---14---14---14-12--10--10--10--10--10--10--10-12-||--------------------------------------------------------------------||-12---12---12---12---12---12---12-10--8---8---8---8---8---8---8--10-||--------------------------------------------------------------------|
|------------------------------------------------------------------------------------||------------------------------------------------------------------------------------||------10-10-9-9-----------10-10-9-9------------10-10-9-9------------10-10-9-9-------||----------------10-10---------------10-10----------------10-10----------------10-10-||--8-8------------------8-8-----------------8-8------------------8-8-----------------||------------------------------------------------------------------------------------|
|------------------------------------------------||------------------------------------------------||------10-10-9-9-----~------10-10-9-9--------14--||----------------10-10----------------10-10------||--8-8------------------8-8------------------12--||------------------------------------------------|
chorus
|-------------------------------------------------||-------------------------------------------------||-14-14-14-14-14-14-14-14-14-14-14-14-12-12-15-15-||-------------------------------------------------||-12-12-12-12-12-12-12-12-12-12-12-12-10-10-13-13-||-------------------------------------------------|
|-------------------------------------------------||-------------------------------------------------||-10-10-10-10-10-10-10-10-10-10-10-10-12-12-12-15-||-------------------------------------------------||-8--8--8--8--8--8--8--8--8--8--8--8--10-10-10-13-||-------------------------------------------------|
pm . . . . . . . .
|-------------------------------------|------------------------------------------||-------------------------------------|------6-5-------6-5-------6-5-------6-5---||-7-7-7-7-7-7-7-7-7-7-7-7-10-10-12-12-|----------5---------5---------5---------5-||-------------------------------------|------------------------------------------||-5-5-5-5-5-5-5-5-5-5-5-5-8--8--10-10-|--3-3-------3-3-------3-3-------3-3-------||-------------------------------------|--3-3-------3-3-------3-3-------3-3-------|
|-------------------------------------------------||-------------------------------------------------||-14-14-14-14-14-14-14-14-14-14-14-14-12-12-15-15-||-------------------------------------------------||-12-12-12-12-12-12-12-12-12-12-12-12-10-10-13-13-||-------------------------------------------------|
|-------------------------------------------------||-------------------------------------------------||-10-10-10-10-10-10-10-10-10-10-10-10-12-12-12-15-||-------------------------------------------------||-8--8--8--8--8--8--8--8--8--8--8--8--10-10-10-13-||-------------------------------------------------|
|-----------------------------||-----------------------------||-7-7-7-7-7-7-7-7-7-7-7-7--7--||-----------------------------||-5-5-5-5-5-5-5-5-5-5-5-5--5--||-----------------------------|
bridge build-up . . . . . . . . . . . .|------------------------------------||------------------------------------||------------------------------------||-3--3-3-3-3-3-3-3-3-3-3-3-3-3-3-3-3-||-3--3-3-3-3-3-3-3-3-3-3-3-3-3-3-3-3-||-3--3-3-3-3-3-3-3-3-3-3-3-3-3-3-3-3-|
|---------------------------------||---------------------------------||---------------------------------| repeat 3 times!|-3---3---------------------------||-------3---3---1-0---1-3---3-1-0-||---3-----3---3-----3-----3-------|
. .. .. .. .. . .. .. .. ...|----------------------------------||-----------------------------------||-----------------------------------||---------------3h5p3---------------||-3-33-33-33-33-------3-33-33-33-33-||-3-33-33-33-33-------3-33-33-33-33-|
(little piano/synth riff played on the guitar)
|--------------------------------------------||--------------------------------------------||---10-9-------10-9-10----10-9-------10-9-10-||--------10--------------------10------------||-8----------8----------8----------8---------||--------------------------------------------|
|--------------------------------------------------------||-------------------------------------------10^(11)10~~--||-----------------------------------3--3-----------------||-3-333333333333333-0---------------3--3-----------------||-3-333333333333333-0-------3-1-0---1--1-----------------||-3-333333333333333-0---0-3-------3----------------------|
Please rate this tab:
x1.0