Pino Scotto - Gli Arbitri Ti Picchiano tab

Canzone/song: Gli arbitri ti picchiano                
Artista/artist: Pino Scotto&Caparezza
Album: Buena suerte

This is my first tab so pretty sure it's correct.
I didn't tab the guitar solo because I'm not relly good yet.
   
Intro(x4):                                                       
                                                                          
|---------------------------------------------| |---------------------------------------------| |---------------------------------------------| |--5/7-7-7-7-5/7-7-7-7-5/-7-7-7-7-5/-7-7-7-7--| |--3/5-5-5-5-3/5-5-5-5-3/-5-5-5-5-3/-5-5-5-5--| |---------------------------------------------|
Bridge(x4):
|---------------------------------------| |---------------------------------------| |---------------------------------------| |--7-7----5-5-----5-5----0-3-0-3-0-3-3--| |--5-5----3-3-----2-2----0-3-0-3-0-3-3--| |------------------------0-3-0-3-0-3-3--|
The fourth time:
|----------------------||----------------------||----------------------||----------------------||----------------------||--0-3b-0-3b-0-3b-0-0--|
Verse(x4):
|-----------------------------------------------------------------------||-----------------------------------------------------------------------||--7--x-x-x-x-x-7-5--x-x-x-x-x-x-5-5--x-x-x-x-x-x-5-3--x-x-x-x-x-3-5-7--||--7--x-x-x-x-x-7-5--x-x-x-x-x-x-5-5--x-x-x-x-x-x-5-3--x-x-x-x-x-3-5-7--||--5--5-5-5-5-5-5-3--3-3-3-3-3-3-3-2--2-2-2-2-2-2-2-1--1-1-1-1-1-1-3-5--||-----------------------------------------------------------------------|
The fourth time:
|--------------------------------------||-----------------------------8-8-8-8--||--------------------7-7-7-7--7-7-7-7--||--7-7-7-7--7-7-7-7--7-7-7-7--7-7-7-7--||--x-x-x-x--x-x-x-x--x-x-x-x--x-x-x-x--||--7-7-7-7--7-7-7-7--7-7-7-7--7-7-7-7--|
Chorus:
|----------------------------------------| |----------------------------------------| |----------------------------------------| |--7-7----5-5-----5-5-----0-3-0-3-0-3-3--| |--5-5----3-3-----2-2-----0-3-0-3-0-3-3--| |-------------------------0-3-0-3-0-3-3--|
Verse(x4):
|-----------------------------------------------------------------------||-----------------------------------------------------------------------||--7--x-x-x-x-x-7-5--x-x-x-x-x-x-5-5--x-x-x-x-x-x-5-3--x-x-x-x-x-3-5-7--||--7--x-x-x-x-x-7-5--x-x-x-x-x-x-5-5--x-x-x-x-x-x-5-3--x-x-x-x-x-3-5-7--||--5--5-5-5-5-5-5-3--3-3-3-3-3-3-3-2--2-2-2-2-2-2-2-1--1-1-1-1-1-1-3-5--||-----------------------------------------------------------------------|
The fourth time:
|--------------------------------------||-----------------------------8-8-8-8--||--------------------7-7-7-7--7-7-7-7--||--7-7-7-7--7-7-7-7--7-7-7-7--7-7-7-7--||--x-x-x-x--x-x-x-x--x-x-x-x--x-x-x-x--||--7-7-7-7--7-7-7-7--7-7-7-7--7-7-7-7--|
Chorus:
|---------------------------------------| |---------------------------------------| |---------------------------------------| |--7-7----5-5-----5-5----0-3-0-3-0-3-3--| |--5-5----3-3-----2-2----0-3-0-3-0-3-3--| |------------------------0-3-0-3-0-3-3--|
Bridge:
|---------------------------------------------------------------||---------------------------------------------------------------||---------------------------------------------------------------||--5/7-7-7-5/7-7-7-5/7-7-7--5-7--5/7-7-7-5/7-7-7-5/7-7-7--5--7--||--3/5-5-5-3/5-5-5-3/5-5-5--3-5--3/5-5-5-3/5-5-5-3/5-5-5--3--5--||---------------------------------------------------------------|
|-------------------------------------------------------------------||-------------------------------------------------------------------||-------------------------------------------------------------------||-------------------------------------5/7-7-7-5/7-7-7-5/7-7-7--5-7--||--3/5-5-5-5-3/5-5-5-5-3/5-5-5-5-3-5--3/5-5-5-3/5-5-5-3/5-5-5--3-5--||--3/5-5-5-5-3/5-5-5-5-3/5-5-5-5-3-5--------------------------------|
|-------------------------------------------------------------------||-------------------------------------------------------------------||-------------------------------------------------------------------||-------------------------------------5/7-7-7-5/7-7-7-5/7-7-7--5-7--||--3/5-5-5-5-3/5-5-5-5-3/5-5-5-5-3-5--3/5-5-5-3/5-5-5-3/5-5-5--3-5--||--3/5-5-5-5-3/5-5-5-5-3/5-5-5-5-3-5--------------------------------|
Chorus:
|---------------------------------------| |---------------------------------------| |---------------------------------------| |--7-7----5-5-----5-5----0-3-0-3-0-3-3--| |--5-5----3-3-----2-2----0-3-0-3-0-3-3--| |------------------------0-3-0-3-0-3-3--|
Guitar solo and outro.
Tap to rate this tab
 
# A B C D E F G H I J K L M N O P Q R S T U V W X Y Z