Piotr Ilyich Tchaikovsky - Dance Of The Sugar Plum Fairy tab

this version has all of the piece except the fast stuff at the end,, i havn't the
foggiest where to start on that part!! sounds great with a lot of reverb :) any
comments to iamafish@hotmail.com
~pete


E||-----12-----14-----15---------|-----12-----14-----15---------|B||--------------------------16--|--------------------------16--|G||-----12-----14-----15-----14--|-----12-----14-----15-----14--|D||------------------------------|------------------------------|A||------------------------------|------------------------------|E||--0------0------0------0------|--0------0------0------0------|
----------------------------|------------------0---0------------|-----8---8--7--------3-3-3--|--2-2-2--1-1-1--0-0-1-1-0----------|-------9----8--8--9--4-4-4--|--3-3-3--2-2-2--0------------------|-----9---9-----7--8------2--|------2------1------2------2-0-----|----------------------------|----------------2---0---2------3-2-|--0------0-----0-----0------|--0------0------0-------0----------|
-----3---3--2--8--7--3-3-3--|--2-2-2-----------2---2------------|-------5----4--7--8--2-2-2--|--3-3-3--5-5-5--4---5---4----------|-----3---------0--0--3-3-3--|--4-4-4--3-3-3--4---5---4----------|-------------------------2--|------4------2--4---5---4----------|--1------0------------------|--2-------------2---3---2--2-0-----|---------------3-----2------|---------2---------------------3-2-|
----------------------------|------------------0---0------------|-----8---8--7--------3-3-3--|--2-2-2--1-1-1--0-0-1-1-0----------|-------9----8--8--9--4-4-4--|--3-3-3--2-2-2--0-------0--0-------|-----9---9-----7--8------2--|------2------1------2--------4-2-0-|----------------------------|----------------2---0---2----------|--0------0-----0-----0------|--0------0------0-------0----------|
--------------------------------------|-----------------------------7-7-----|-----5---5--4----------3---3--2-------|-----1---1--0--------------7---8--0--|-------6----4------------4----0-------|-------2----0------------8-----9-----|-----5---5--4----------4---4--2-------|-----2---2--0------------------9-----|--4-----------7-6-4-2-----------5-4-2-|--0-----------3-2-0------------7-----|--------------------------------------|--------------------3--7----------7--|
---------------------------------------------|---------------------------------------0-2-0-|----8---9-----11----12----14----12-11--------|----9---10----13----14----16----14-13--------|---------------------------------------------|--7---8----11----12----14----12----11--------|
-----------------------------------------------|--------4-----5-------0---------2-----3-----0--|--2-0-----4-----4---2---2-0-------2-----2------|------------5-----5---------4-0-----0-----0----|-----------------------------------------------|------0-------------------------------------7--|
--------------------------------------------|--------------------------------------0-2-0-|---8---9-----11----12----14----12-11--------|---9---10----13----14----16----14-13--------|--------------------------------------------|-----8----11----12----14----12----11--------|
-----------------------------------------------|--------4-----5-------0---------2-----3-----0--|--2-0-----4-----4---2---2-0-------2-----2------|------------5-----5---------4-0-----0-----0----|-----------------------------------------------|------0-------------------------------------7--|
-----------------------------------------|-----------------0--------------------0--|----8---9-----11-------11----12----11----|----9---10----13-------13----14----13----|-----------------------------------------|--7---8----11----7--11----12----14----7--|
-----------------------------------------|--------------------0-7-10-10---10-12----|-----14----16----18---4-9--9----9--11----|-----16----17----19-----------9----------|-----------------------------------------|--14----15----17----7---------7----------|
---------------------------------------------------------------------------------|---------8---------12--------8---------12----------13----------16----------13----|-------9--------11---------9--------11----------12----------16----------12-------|--7h10-----9h13-------7h10-----9h13-------10h14-------13h16-------10h14-------13-|---------------------------------------------------------------------------------|---------------------------------------------------------------------------------|
-----------------------------------------------------------17----------19-------|-----------17----------19----------17----------19-------17-------16h19----------|--------17-------16h20----------17-------16h20----14h17-------16----------14h17-|--14h17-------16----------14h17-------16----------------------------------------|--------------------------------------------------------------------------------|--------------------------------------------------------------------------------|
--------------|-----15----15--14--------------------|--------------|--------17-----16--16--17--15-15-15--|--------------|-----16----16------14--15--16-16-16--|--------------|-----14----------------14--------12--|------2-0-----|---------------12--------------------|----------3-2-|--0--------12------12------12--------|
-------------------------12----12-----------------|--14-14-14--13-13-13--12----13----12--------------|--15-15-15--14-14-14--12----14----12--------------|--------11--------13------------------14-12-------|----------------------------12--------------15-14-|--12--------12--------12----------12--------------|
------15----15--14--20--19--15-15-15--|---------17-----16--19--20--14-14-14--|------15------------------------------|----------------------------------14--|--13--------12------------------------|--------------------15------14--------|
--14-14-14---------------14----14-----------------|--15-15-15--17-17-17--16----17----16--------------|------------15-15-15--16----17----16--------------|--------16--------16------------------------------|--14------------------14----15----14--14-12-------|------------14------------------------------15-14-|
------15----15--14--------------------|---------17-----16--16--17--15-15-15--|------16----16------14--15--16-16-16--|------14----------------14--------12--|----------------12--------------------|--12--------12------12------12--------|
-------------------------12----12-----------------|--14-14-14--13-13-13--12----13----12--------------|--15-15-15--14-14-14--12----14----12--------------|--------11--------13------------------17-16-------|----------------------------12--------------19-17-|--12--------12--------12----------12--------------|
------------------------------------------------------|------17----17--16--------------15----15--14----------|---------18-----16-----------------16-----14----------|------17----17--16--------------16----16--14----------|--16---------------19-18-16-14---------------17-16-14-|------------------------------------------------------|
-----------------------------------------19-------||------13----13--12-----------------16h19----17----||---------14-----12--------------------------------||------14----14--12--------------------------------||--12---------------15-14-12-----14----------------||----------------------------15--------------0-----||
Tap to rate this tab
 
# A B C D E F G H I J K L M N O P Q R S T U V W X Y Z