Maggot Song tab with lyrics by Poisonblack - Easy chords and tabs for guitar

Poisonblack – Maggot Song tab

Intro |----------------------------------------------||----------------------------------------------||----------------------------------------------||5-3--3-2--------0-5-4-5--5-4-5--5-4-5-2-2-1-0-||5-3--3-2--------0-3-2-3--3-2-3--3-2-3-2-2-1-0-||5-3--3-2-2-3-5--0---------------------2-2-1-0-|
. . .|------------------------------------------||------------------------------------------||------------------------------------------||0-5-4-5--5-4-5-2-3-5-5-3-2-0-5-4-5--5-4-5-||0-3-2-3--3-2-3-2-3-5-5-3-2-0-3-2-3--3-2-3-||0--------------2-3-5-5-3-2-0--------------|
|------------------------------------------------||------------------------------------------------||------------------------------------------------||-5-4-5-2-2-1-0-0-5-4-5-------5-3--3-2-------2-0-||-3-2-3-2-2-1-0-0-3-2-3-------5-3--3-2-------2-0-||-------2-2-1-0-0-------2-3-5-5-3--3-2-2-3-5-2-0-|
. . . . . .Verse|--------------------------------------------------||--------------------------------------------------||--------------------------------------------------||------------------2-0--0--------2-0--0--------2-0-||------------------2-0--0--------2-0--0--------2-0-||------------------2-0--0--2-3-5-2-0--0--2-3-5-2-0-|
. . . . . .|------------------------------------------------||------------------------------------------------||------------------------------------------------||-----2-2-1-0-------2-2-1-0-------2-2-1-0-2-0--0-||-----2-2-1-0-------2-2-1-0-------2-2-1-0-2-0--0-||-----2-2-1-0-------2-2-1-0-------2-2-1-0-2-0--0-|
|---------------------------------------||---------------------------------------||---------------------------------------||-------2-0--0--------2-0--0--------2-0-||-------2-0--0--------2-0--0--------2-0-||-2-3-5-2-0--0--2-3-5-2-0--0--2-3-5-2-0-|
. . . . . . . . . |--------------------------||--------------------------||--------------------------||-----7--------------------||-----7--7-7-7-7-7-7-7-7-7-||-----7--7-7-7-7-7-7-7-7-7-|
. . . . . . . . .Chorus|-----------------------------------------------------------------||-----------------------------------------------------------------||-----------------------------------------------------------------||-2-2-2-2-2-2-2-2-2-2-2-2-2-2-2-2-2-2-2-2-2-2-2-2-4-4-4-4-4-4-4-4-||-0-0-0-0-0-0-0-0-0-0-0-0-0-0-0-0-2-2-2-2-2-2-2-2-2-2-2-2-2-2-2-2-||---------------------------------2-2-2-2-2-2-2-2-----------------|
|--------------------------------------------------------------||--------------------------------------------------------------||--------------------------------------------------------------||2-2-2-2-2-2-2-2-2-2-2-2-2-2-2-2--------------4--4-4-4-4-4-4-4-||0-0-0-0-0-0-0-0-0-0-0-0-0-0-0-0--------------2--2-2-2-2-2-2-2-||--------------------------------0-2-0-3~-3-2------------------|
|----------------------------------------------------------------||----------------------------------------------------------------||----------------------------------------------------------------||2-2-2-2-2-2-2-2-2-2-2-2-2-2-2-2-2-2-2-2-2-2-2-2-4-4-4-4-4-4-4-4-||0-0-0-0-0-0-0-0-0-0-0-0-0-0-0-0-2-2-2-2-2-2-2-2-2-2-2-2-2-2-2-2-||--------------------------------2-2-2-2-2-2-2-2-----------------|
|-------------------------------------------------||-------------------------------------------------||-------------------------------------------------||2-2-2-2-2-2-2-2-2-2-2-2-2-2-2-2-5--5-5-5-5-------||0-0-0-0-0-0-0-0-0-0-0-0-0-0-0-0-5--5-5-5-5-------||--------------------------------5--5-5-5-5-2-3-5-| . . .
Play Intro Play Verse Play Chorus
Riff|------------------------------------------------------||------------------------------------------------------||------------------------------------------------------||5-3--3-2-------0--------------------------------------||5-3--3-2-------0-----3-5-----7-9-----11-13---13-15-16-||5-3--3-2-2-3-5-0-0-0-----0-0-----0-0-------0----------|
. . . . . . . . . .|-------------------------------------------------------||-------------------------------------------------------||-------------------------------------------------------||-----------------0-----0-3-----3-0---------------------||----16-15-----15-0-----0-3-----3-0-----3-5-----7-9-----||0-0-------0-0----0-0-0-0-3-0-0-3-0-0-0-----0-0-----0-0-|
. . . . . . . . . . . . . .|----------------------------------------------||----------------------------------------------||----------------------------------------------||----------------------------------------------||11-13---13-15-16-----16-15-----15-------------||------0----------0-0-------0-0----0/7-5-3-2-3-|
. . . . . . |-----------------------------------------------------||-----------------------------------------------------||-----------------------------------------------------||0-----3-5-----5-7-----7-9---9-11-12-----12-11-----11-||0-----3-5-----5-7-----7-9---9-11-12-----12-11-----11-||0-0-0-3-5-0-0-5-7-0-0-7-9-0-9-11-12-0-0-12-11-0-0-11-|
. . . . . . . . . . .|----------------------------------------------------||----------------------------------------------------||----------------------------------------------------||0-----0-3-----3-------3-5-----5-7-----7-9---9-11-12-||0-----0-3-----3-------3-5-----5-7-----7-9---9-11-12-||0-0-0-0-3-0-0-3-0-0-0-3-5-0-0-5-7-0-0-7-9-0-9-11-12-|
. . . . . . . . . . . .|----------------------------------------------------------------||----------------------------------------------------------------||----------------------------------------------------------------||----12-11-----10-----------------------13-12-10-12--10-12-13-10~||----12-11-----10------------------------------------------------||0-0-12-11-0-0-10--10-10-10-10-10-10-10--------------------------| . . . . . . . . . . .
Play Chorus 3x its played alittle different
End|--------------------||--------------------||--------------------||-5-3--3-2-------3-0-||-5-3--3-2-------3-0-||-5-3--3-2-2-3-5-3-0-| . . .
Please rate this tab:
x1.0