Poltz Steve - Everything About You tab

everything about you -ugly kid joe

by jason prowd
intro
CLEAN

INTRO(clean)|--- -------------------------------------------------------------------||---3------------------------------2------------------------------------||---2------------------------------3------------------------------------||---0-----------2------------------0-----------2----------/5-----4--2---||---------2-----0------0--2--0-----------2-----0------0-------0---------||----------3------------------------------3-----------------------------|
|-------2----------------5-------------------2----------------||-----3----------------------------------3-----3--------------||---2-----------------2------------------2-------2----------2-||-0-------------2---2--------------------0------------------2-||----------2----0--------------0--2--0---------------2------0-||------------3------------------------------------------3-----|
DISTORTION|------------------------------------------|------------------------------||------------------------------------------|------------------------------||---------------------------------|p.m|----|------------------------------||------------7-7-7----------2--2---2-2--2--|----------7-7-7---------2--2--||-0-2-0------5-5-5---2------0--0---0-0--0--|-0-2-0----5-5-5---2-----0--0--||----------------------3-------------------|--------------------3---------|
--------------------|-------------------------------------------|-------|--------------------|-------------------------------------------|-------|--------------------|----------------------------------|p.m|----|-------|--|P.M|--5-----4--2-|-------------7-7-7----------2--2---2-2--2--|-------|---0-0------0-------|--0-2-0------5-5-5---2------0--0---0-0--0--|-0-2-0-|--------------------|-----------------------3-------------------|-------|
----------------|----------------|-------------2--| END OF INTRO-7-7-7-------2--|-5-5-5--2----0--|----------3-----|
VERSE i....hate the.....|-----------------------------------------| |----------------------------||-----------------------------------------| |------------------------2-2-||----------------------------------2---2--| |------------------------2-2-||------------7-7-7----------2--2---2---2--|x7 |---------7-7-7-------2--2-2-||-0-2-0------5-5-5---2------0--0---0-0-0--| |-0-2-0---5-5-5--2----0------||----------------------3------------------| |------------------3---------|
PRE CHORUS
|----------------||----------------||----------------||-3---3-3-3---5--||-3---3-3-3---5--||-1---1-1-1---3--|
CHORUS
|-----------------------------|-----------------------|---------------||-----------------------------|-----------------------|---------------||-----------------------2---2-|-----------------------|---------------||-7-7-7----------2--2---2---2-|--------7-7-7--------2-|---------------||-5-5-5----2-----0--0---0-0-0-|-0-2-0--5-5-5---2----0-|--10--10h12-13-||------------3----------------|------------------3----|---------------|
2nd VERSE
i....hate the.....|-----------------------------------------| |----------------------------||-----------------------------------------| |------------------------2-2-||----------------------------------2---2--| |------------------------2-2-||------------7-7-7----------2--2---2---2--|x7 |---------7-7-7-------2--2-2-||-0-2-0------5-5-5---2------0--0---0-0-0--| |-0-2-0---5-5-5--2----0------||----------------------3------------------| |------------------3---------|
2nd PRE CHORUS
|-----------------------------------------------------------------||-----------------------------------------------------------------||-----------------------------------------------------------------||-3---3-3-3---5---5-5-5---3---3-3-3---5---5-5-5----3---3-3-3---5--||-3---3-3-3---5---5-5-5---3---3-3-3---5---5-5-5----3---3-3-3---5--||-1---1-1-1---3---3-3-3---1---1-1-1---3---3-3-3----1---1-1-1---3--|
2nd CHORUS
|------------------------------|-------| |-----------||------------------------------|-------| |-----------||------------------------2---2-|-------| |-----------||--7-7-7----------2--2---2---2-|-------| x3 |--7--5--2--||--5-5-5----2-----0--0---0-0-0-|-0-2-0-| |--5--3--0--||-------------3----------------|-------| |-----------|
BRIDGE (clean)
|------3-----------------3------------------5---------------5---||--------3---3-------------3------------------5---5-----------5-||----------3-----------------------------2------5--------2------||---0----------------0-----------------2---------------2--------||---0--------------0---0-----------0-----------------0----------||-3--------------3-------------4--------------------------------|
(distortion)-------------3-------------------3------|----------------------------|---------------3----3--------------3----|----------------------------|----------3------3----------------------|--2-2-2-2-2-2-2-2-2-2-2-2-2-|-------0--------------------0-----------|--2-2-2-2-2-2-2-2-2-2-2-2-2-|--------------------------0---0---------|--0-0-0-0-0-0-0-0-0-0-0-0-0-|-4--3-------------------3-------------4-|----------------------------|
SOLO
|----------------------------------------------------||-15--15-15-15--12--------------------------12-------||------------------12---14^--14-14-14-14-14-----14---||----------------------------------------------------||----------------------------------------------------||----------------------------------------------------|
|-----------------------------------------15----15-13--||-15--15-15-15--12------------------------14----14-13--||------------------12---14^--14-14-14--14-14-14-14-13--||------------------------------------------------------||------------------------------------------------------||------------------------------------------------------|
|-----------------------------------------------------------------13-15-||-15--15-15-15--12--------------------------12-------15--15-15-15-------||------------------12---14^--14-14-14-14-14-----14----------------------||-----------------------------------------------------------------------||-----------------------------------------------------------------------||-----------------------------------------------------------------------|
-15^--15^-15^-15^-15^-15^-15^-15-|-7-7-8-8-10-8-7----9-9-10-10-12-10-9--|---------------------------------|--------------------------------------|---------------------------------|--------------------------------------|---------------------------------|--------------------------------------|---------------------------------|--------------------------------------|---------------------------------|--------------------------------------|
--------------------------------7-7-8-8-10-8-7------|-----17-------------|-0-0-1-1-3-1-0----2-2-3-3-5~--------------------10--|-17^----17---15~~---|----------------------------------------------------|--------------------|----------------------------------------------------|--------------------|----------------------------------------------------|--------------------|----------------------------------------------------|--------------------|
AFTER SOLO RIFF
|-------------------------------------------------||-------------------------------------------------||-------------------------------------------------||-7--7--7---7-7-7-7-7-7---------------------------| x10|-5--5--5---5-5-5-5-5-5----7--7--7---7-7-7-7-7-7--||--------------------------5--5--5---5-5-5-5-5-5--|
|-----------------------------||-----------------------------||-----------------------------||-3--3-3-3-3-3---5--5-5-5-5-5-| x4|-3--3-3-3-3-3---5--5-5-5-5-5-||-1--1-1-1-1-1---3--3-3-3-3-3-|
OUTRO HATE EVERYTHING ABOOOOOOOUUUUT YOU|----------------------------------------------------------------------------||----------------------------------------------------------------------------||----------------------------------------------------------------------------||-----------------------------------------6-6--5-5--4-4--3-3--2--22222222222-||-----------------------------------------6-6--5-5--4-4--3-3--2--22222222222-||----------------------------------------------------------------------------|
|-------------------------||-------------------------||-------------------------||--5--0-0---2--0---4--5---||--5--0-0---2--0---4--5---||-------------------------|
WELL HATS IT EVERYTHING IS PRETTY ACURATE BUT THE SOLO MIGHT BE A BIT OFF IN SOME PLACES I THINNK ITS THE MOST CLOSEST ONE PLEASE COMMENT ----JASON
Tap to rate this tab
 
# A B C D E F G H I J K L M N O P Q R S T U V W X Y Z