Price Rick – Heaven Knows tab

Version from 6stringer
Hope you like it
watch this http://youtube.com/watch?v=x9q5IPbKn6Q to see video


Intro:|------3-----------0---1-0--------------3---------3--||--3----3-----3------1-----1--------3-----3-----3-3--||--5-5------5----------------0------5-5-------5---5--||--5--------------------------------5-------5-----5--||--3------3--------3------------0---3-------------5--||-------------------------------------------------3--|
Verse I|----------------------------0--||------------------0---------3--||--5-5-----4------------0----0--||---------------7---------2--2--||---------------------3------3--||-------------------------------| She’s always on my mind
|-----------------------0-------||-11--------1-1h3-1-------------||---------2---------------------||-------3------------3----------||-------------------------------||-------------------------------| From the time I wake up
|---------1-----0---------------||--1----------------3---------3-||---2---------------------------||---------------------------0---||-------------2-----------2-----||---------3-------------1-------| Till I close my eyes
|--0--0----------0--5-----------||--3-----------3-------1--------||--0----------------------------||--0----------------------------||--2----------------------------||--0-----------------4----------| She is everywhere I go
|-----------------------------------1------1-------||-------1------0--1---------------1---1----1-------||-----2--------------2----------2-------2--2-------||---2-------------------------3------------3-------||-0-------------------------3--------------0-------||--------------3----------1----------------3-------| She’s all I know
|---------------------------0---0------------------||--1----1-----0--------0----3----------------------||------------------2----0---0----(0)---------------||-------------------------2-2----------------------||--------------------3------3-3--------------------||--------------------------------------------------| And though she’s so far away
|--------------------------------0-1-0--------------||----------111h3-1---------1-----------3--------3---||----2-------------------2--------------------------||-3--------------------3----------------------0-----||-------------------------------------------2-------||--------------------------------3--------1---------| It just keep getting stronger everyday
|--0-0---------0---5-----------||--3----------------------1----||--0---------------------------||--0---------------------------||--2---------------------------||--0----------------4----------| And even though she’s gone
|-------------------------------------1----||-----0h1p0--0----0-0h1p0-----------1------||--------------------------2------2--------||---2---------------------------3----------||-0---------------------------3------------||---------------3--------------------------| I’m still holdin on
Pre Chorus|------------------------------------||------0---1----1---0--1---1---------||---2----------------------2---------||--------------------------2---------||---------------0----------0---------||------------------------------------| So tell me where do I start
|------------------------------------||----0--1----1---0--1—1h3-1----------||-----------------------------0------||-(2)-----------------------2--------||------------------------------------||------------3-----------------------| Coz it breakin my heart
|---0----1---0-----------3-----------||---------------3----1---------------||----------------2----0--------------||---3--------------------------------||------------------------------------||------------------------------------| Don’t want to let her go . . .
|-------3------1---------------------||-----4--------3---------------------||---5----------3---------------------||-6----------3-----------------------||----------1-----0-------------------||------------------------------------|
Chorus|--3-3--3---3-------0h1p0---------------0-------------------||--1--------------1-----------3-------------3-----1-0h1p0---||--0--------------------------------2--------------------0--||--2--------------------------------------------------------||--3--------------------------------------------------------||---------------0-----------------1------------3------------| Maybe my love will come back someday
|--0----3s8-8---7--3-------------------------||----1------------------------0---1-0--------||---------------------------2---------2-0----||-------------------------3------------------||--3-----------------------------------------||-------------0--------1----------3----------| Only heaven knows
|--3-3--3---3-------0h1p0-----------0-------------------||--1--------------1-------3-------------3-----1-0h1p0---||--0----------------------------2--------------------0--||--2----------------------------------------------------||--3----------------------------------------------------||---------------0-------------1------------3------------| Maybe our hearts will find their way
|--8-7-------------3-------------------------||-------10----8--------------0---1-0---------||---------------7----------2---------2-0-----||------------------------3-------------------||--------------------------------------------||--8-------0-----------1---------3-----------| Only heaven knows
|--0---------------3-------0-----------------||-----1-----1--3---------------1-------------||--------2--2----------------2-3-------------||-----------2------------3-----3-------------||--0--------0----------1-------1-------------||--------------------------------------------| All I can do is hope and pray
|--3-----------------------||--3-------------3---------||--5---------------5-------||--3--5---5--5-------------||--5-----------------------||--3-----------------------| Coz heaven knows
Intro:|------3-----------0---1-0--------------3---------3--||--3----3-----3------1-----1--------3-----3-----3-3--||--5-5------5----------------0------5-5-------5---5--||--5--------------------------------5-------5-----5--||--3------3--------3------------0---3-------------5--||-------------------------------------------------3--|
Verse II|------------------------------0---0-----||--------------------0---------3---------||--5--5------4------------0----0----(0)--||-----------------7---------2--2---------||-----------------------3------3-3-------||----------------------------------------| My friends keep telling me
|--------------------------------------1---0-----------------||------------111h3-1----------------------------3--------3---||----2----------------------2-2p0----------------------------||-3-----------------------3---------------------------0------||--------------------------------------2-------------2-------||------------------------------------3-------------1---------| If you really love her you’ve gotta set her free
|--0---0---------0-5-----------||--3---------3----------1------||--0---------------------------||--0---------------------------||--2---------------------------||--0-----------------4---------| And if she return in kind
|------------------------------------1-----------||-----0h1p0-0----------1-----------1-------------||------------------------2-------2---------------||---2-------------2------------3-----------------||-0--------------------------3-------------------||--------------3---------------------------------| I know she’s mine
Pre Chorus|------------------------------------||------0---1----1---0--1---1---------||---2----------------------2---------||--------------------------2---------||---------------0----------0---------||------------------------------------| So tell me where do I start
|------------0----------------------||----0--1----1--1---—1h3-1----------||---------------------------0h2-0---||-(2)-------------2-----------------||-----------------------------------||------------3----------------------| Coz it breakin my heart
|---0----1---0-----------3-----------||---------------3----1---------------||----------------2----0--------------||---3--------------------------------||------------------------------------||------------------------------------| Don’t want to let her go . . .
|-------3------1---------------------||-----4--------3---------------------||---5----------3---------------------||-6----------3-----------------------||----------1-----0-------------------||------------------------------------|
Chorus|--3-3--3---3-------0h1p0---------------0-------------------||--1--------------1-----------3-------------3-----1-0h1p0---||--0--------------------------------2--------------------0--||--2--------------------------------------------------------||--3--------------------------------------------------------||---------------0-----------------1------------3------------| Maybe my love will come back someday
|--0----3s8-8---7--3-------------------------||----1------------------------0---1-0--------||---------------------------2---------2-0----||-------------------------3------------------||--3-----------------------------------------||-------------0--------1----------3----------| Only heaven knows
|--3-3--3---3-------0h1p0-----------0-------------------||--1--------------1-------3-------------3-----1-0h1p0---||--0----------------------------2--------------------0--||--2----------------------------------------------------||--3----------------------------------------------------||---------------0-------------1------------3------------| Maybe our hearts will find their way
|--8-7-------------3-------------------------||-------10----8--------------0---1-0---------||---------------7----------2---------2-0-----||------------------------3-------------------||--------------------------------------------||--8-------0-----------1---------3-----------| Only heaven knows
|--0---------------3-------0-----------------||-----1-----1--3---------------1-------------||--------2--2----------------2-3-------------||-----------2------------3-----3-------------||--0--------0----------1-------1-------------||--------------------------------------------| All I can do is hope and pray
|-----1--------------------------||------------------3--1----------||--------0--0---0----------------||---3----------------------------||--------------------------------||-3------------------------------|
Coz heaven knowsBridge:|-------1-----------------------------||-----1-----0---1--3---1-0-1h3-1--1---||---2-----2--------0-------------2----||-0-----------------------------------||-------------------------------------||------------------0------------------| Why I live in despair
|--0-1-0-----0---------3-----1----------------------------||--------3-3-1--0-1------------0-0-----12+-----12+--------||------------2-----------------------------12+------------||--3---------3--------------------------------------------||---------------------------------------------------------||----------------------0----------------------------------| Coz wide awake or dreaming I know she’s never there
|--------------------------------------8--7-0-----12+-------------||--0----1---1---1---1h3---3---1s5---------------------12+---------||--------------------------------------------------------12+------||--0------------2-------------------------------------------------||------------------------------------------------------------7+---||--------------------------------------------------0--------------| But all the time I act so brave im shaking inside
|--0---1--------------3-----------3-3+------------------1+-------||----------3--------1-----------4-----4+-------------3----3+-----||--------------2--------------5---------5+---------3--------3+---||--3------------------------6-------------6+-----3-----------3+--||----------------------------------------------1-----------------||----------------------------------------------------------------| Why does it hurt me so
Chorus|--3-3--3---3-------0h1p0---------------0-------------------||--1--------------1-----------3-------------3-----1-0h1p0---||--0--------------------------------2--------------------0--||--2--------------------------------------------------------||--3--------------------------------------------------------||---------------0-----------------1------------3------------| Maybe my love will come back someday
|--0----3s8-8---7--3-------------------------||----1------------------------0---1-0--------||---------------------------2---------2-0----||-------------------------3------------------||--3-----------------------------------------||-------------0--------1----------3----------| Only heaven knows
|--3-3--3---3-------0h1p0-----------0-------------------||--1--------------1-------3-------------3-----1-0h1p0---||--0----------------------------2--------------------0--||--2----------------------------------------------------||--3----------------------------------------------------||---------------0-------------1------------3------------| Maybe our hearts will find their way
|--8-7-------------3-------------------------||-------10----8--------------0---1-0---------||---------------7----------2---------2-0-----||------------------------3-------------------||--------------------------------------------||--8-------0-----------1---------3-----------| Only heaven knows
|--0---------------3-------0-----------------||-----1-----1--3---------------1-------------||--------2--2---------------2--3-------------||-----------2------------3-----3-------------||--0--------0----------1-------1-------------||--------------------------------------------| All I can do is hope and pray
|--------------------------||----------------3---------||--5---------------5-------||--3--5---5--5-------------||--5-----------------------||--3-----------------------| Coz heaven knows
Intro:|------3-----------0---1-0--------------3---------3-3----------||--3----3-----3------1-----1--------3-----3-----3-3--------3---||--5-5------5----------------0------5-5-------5---5----------5-||--5--------------------------------5-------5-----5---5-5------||--3------3--------3------------0---3-------------5------------||-------------------------------------------------3------------|
That alls Enjoy the song Add nyo me ha iancj04@yahoo.com Dedicated to all my friends: baka may kilala kayu jan e2 cla MARK ROLAND NAPOLES JERIC CARREON ROWIN REYES JULUIS EVANGELISTA MELVIN MAURICIO RONNEL SANCHEZ MICLOTH VIOLA ROSE ANN DELA CRUZ RACHELLE JOYCE BUENAVENTURA AND ALL MNHS 4-3 SCHOOL MATE SAMA N 4-1 SAKA 4-2 DOTA BOYS ROCK!!!!! ^^^^^^^^^^^^^^^^^^^^^^^^^^^^^^^^^^^^^
Please rate this tab:
x1.0