Priestess - Lady Killer tab version 1

-------------------------------------------------------------------------------
			     Lady Killer - Priestess
-------------------------------------------------------------------------------
Tabbed by:Spaceghost454
Email:solidsnake_14@hotmail.co.uk

Tuning: Half-Step Down

Couldnt find a tab, so I thought Id make my own. Great song from an immensely
underated album, if you havent listend to it yet, do.


Intro

                                  
|---------------------------------||---------------------------------||---------------------------------||---------------------------------||---------------------------------||0-0-0-0-0-0-0-0-0-0-0-0-0-0-0-0-0| - - - - - - - - - - - - - - - - -
|--------------------------------------------------||--------------------------------------------------||--------------------------------------------------||-----------------12/10-9-----10/12---------11/7-9-||----5-----10/9---10/-8-7--10--8/10---10/9---9/5-7-||0-0-3-0-0--8/7-0------0-0--8------0--8/-7-0-------| - - - - - - - - -
x4|--------------------------------------------------||--------------------------------------------------||--------------------------------------------------||-----------------12/10-9-----10/12---------10/7-9-||----5-----10/9---10/-8-7--10--8/10---10/9---8/5-7-||0-0-3-0-0--8/7-0------0-0--8------0--8/-7-0-------| - - - - - - - - -
Pre-verse x2|-----------------------------------------------------------------------||-----------------------------------------------------------------------||-----------------------------------------------------------------------||----------7/10---9----------7/10---9-----------7/10---9------------5-7-||----------5/-8---7----------5/-8---7-----------5/-8---7----------5-3-5-||0-00-0-00------0----00-0-00------0---0-00-0-00------0----00-0-00-3-----| - -- - -- - -- - -- - - -- - -- - -- - --
x4|---------------------------------||---------------------------------||---------------------------------||---------------------------------||---------------------------------||0-0-0-0-0-0-0-0-0-0-0-0-0-0-0-0-0| - - - - - - - - - - - - - - - - -
Verse
|---------------------------------------------------------------||---------------------------------------------------------------||---------------------------------------------------------------||-----------------------------------------------7p6-------------||5h7-------------------------2h7-2h7---------------8p7h8p7-5----||----0-0-0-0-0-0-0-0-0-0-0-0---------0-0-0-0-0-0-------------h8-| - - - - - - - - - - - - - - - - - - Hammer 8 with pinky finger.
2x|------------------------------------------------||------------------------------------------------||------------------------------------------------||----------------------------------------7p6-----||--------------------2h7-2h7-----------------8p7-||1-1-1-1-1-1-1-1-1-1---------0-0-0-0-0-0---------| - - - - - - - - - - - - - - - -
|--------------------||--------------------||--------------------||--------------------||6-7-9-15-14-10-13-9-||4-5-7-13-12--8-11-7-|
|---------------------------------------------------------------||---------------------------------------------------------------||---------------------------------------------------------------||-----------------------------------------------7p6-------------||5h7-------------------------2h7-2h7---------------8p7h8p7-5----||----0-0-0-0-0-0-0-0-0-0-0-0---------0-0-0-0-0-0-------------h8-| - - - - - - - - - - - - - - - - - -
2x|------------------------------------------------||------------------------------------------------||------------------------------------------------||----------------------------------------7p6-----||--------------------2h7-2h7-----------------8p7-||1-1-1-1-1-1-1-1-1-1---------0-0-0-0-0-0---------| - - - - - - - - - - - - - - - -
Pre chorus
|--------------------||--------------------||--------------------||--------------------||6-7-9-15-14-10-13-9-||4-5-7-13-12--8-11-7-|
Chorus x7|------------------||------------------||------------------||7/10---9----------||5/-8---7----------||-----0---0-00-0-0-| - - -- - -
|---------------------||---------------------||---------------------||---------------------||----5--8h7--------11-||5-8--------10p8p7----|
Repeat verse, chorus and intro section Solo rhythm (Not always played exactly like this, but you can figure it out)
|--------------------------------------------------------------||--------------------------------------------------------------||--------------------------------------------------------------||------------------------------------------------------7p6-----||5h7-5h7---------------------------------------------------8p7-||--------0-0-0-0-0-0-0-0-0-0-1-1-1-1-1-1-1-1-0-0-0-0-0---------| - - - - - - - - - - - - - - - - - - - - - - -
Repeat pre chorus/chorus and your done, hope it helps. ************************************ | - Palm Mute | / slide up | \ slide down | h hammer-on | p pull-off | ~ vibrato | + harmonic | x Mute note | b Bend | pb Pre-bend | br Bend release | pbr Pre-bend release | brb Bend release bend ************************************
Tap to rate this tab
 
# A B C D E F G H I J K L M N O P Q R S T U V W X Y Z