Punto Ciego - Y Ahora Te Vas (Bass) chords

Y AHORA TE VAS

PUNTO CIEGO

  Intro

G||-------------------|----------------------|---------------------|D||-------------------|----------------------|---------------------|A||-------------------|----------------------|---------------------|E||-------------------|----------------------|--2~-----------------|
G||----------------------|---------------------|----------------------|D||----------------------|---------------------|----------------------|A||------------0------2~-|---------------------|------------4------5~-|E||----------------------|---------------------|----------------------|
---------------------|----------------------|---------------------|---------------------|----------------------|---------------------|---------------------|------------2------0~-|---------------------|---------------------|----------------------|---------------------|
---------------------|---------------------|---------------------|---------------------|---------------------|---------------------|---------------------|---------------------|---------------------|--4--------7---------|-2~------------------|---------------------|
E||--/14------------------|
Verse-----------------------|------------------------|-----------------------|-----------------------|------------------------|-----------------------|-----------------------|------------0--0--0--2--|-------2----2----2-----|-------2----2----2-----|--2----2----------------|-----------------------|
------------------------|-----------------------|------------------------|------------------------|-----------------------|------------------------|--2----2----4--4--4--5--|-------5----5----5-----|--5----5----2--2--2--0--|------------------------|-----------------------|------------------------|
-----------------------|-----------------------|-----------------------|-----------------------| X 4-------0----0----0-----|-----------------------|-----------------------|--4----4----7----7-----|
----------------------|--------------------------|------------------------|----------------------|--------------------------|------------------------|--5--------5----5--5--|-----5--5----2--2--2--0~--|------------------------|----------------------|--------------------------|-------------------/14--|
Chorus------------------------|-----------------------|------------------------|------------------------|-----------------------|------------------------|------------0--0--0--2--|-------2----2----2-----|--2----2----4--4--4--5--|--2----2----------------|-----------------------|------------------------|
-----------------------|------------------------|-----------------------|-----------------------|------------------------|-----------------------|--------5----5----5----|--5----5----2--2--2--0--|-------0----0----0-----|-----------------------|------------------------|-----------------------|
-----------------------|-----------------------|------------------------|-----------------------|-----------------------|------------------------|-----------------------|-----------------------|------------0--0--0--2--|--4----4----7----7--2--|------2----2----2------|--2----2----------------|
-----------------------|------------------------|-----------------------|-----------------------|------------------------|-----------------------|------2----2----2------|--2----2----4--4--4--5--|-------5----5----5-----|-----------------------|------------------------|-----------------------|
------------------------|-----------------------|-----------------------|------------------------|-----------------------|-----------------------|--5----5----2--2--2--0--|-------0----0----0-----|-----------------------|------------------------|-----------------------|--4----4----7----7-----|
Fast part
-------------------|-------------------|-------------------|-2~----------------|
---------------------|---------------------|----------------------|---------------------|---------------------|----------------------|---------------------|---------------------|----------------------|---------------------|---------------------|---------7/-----------|
------------------------------|------------------------------|------------------------------|------------------------------|--------------------5----4----|--------------------4----2----|--2--2--2--2--2--2------------|--2--2--2--2--2--2------------|
------------------------------|------------------------------|------------------------------|------------------------------|--------------------5----4----|--------------------5----7----|--2--2--2--2--2--2------------|--2--2--2--2--2--2------------|
-----------------------------|-----------------------------|-----------------------------|-----------------------------|-----------------------------|-----------------------------|--2--2--2--2--2--2----2~-----|--2--2--2--2--2--2------2~---|
-----------------------------|-----------------------------|-----------------------------|-----------------------------|-----------------------------|-----------------------------|--2--2--2--2--2--2----2~-----|--2--2--2--2--2--2------2~---|
-----------------------------|-----------------------------|-----------------------------|-----------------------------|-----------------------------|-----------------------------|--7--7--7--7--7--7-----7~----|--7--7--7--7--7--7----7~-----|
-----------------------------|-----------------------------|-----------------------------|-----------------------------|-----------------------------|-----------------------------|--5--5--5--5--5--5----5~-----|--5--5--5--5--5--5----5~-----|
------------------------------|------------------------------|------------------------------|------------------------------|--------------------5----4----|--------------------4----2----|--2--2--2--2--2--2------------|--2--2--2--2--2--2------------|
------------------------------|------------------------------|------------------------------|------------------------------|--------------------5----4----|--------------------5----7----|--2--2--2--2--2--2------------|--2--2--2--2--2--2------------|
------------------------------|------------------------------|------------------------------|------------------------------|--------------------5----4----|--------------------4----2----|--2--2--2--2--2--2------------|--2--2--2--2--2--2------------|
------------------------------|------------------------------|------------------------------|------------------------------|--------------------5----4----|--------------------5----7----|--2--2--2--2--2--2------------|--2--2--2--2--2--2------------|
-----------------------------|-----------------------------|-----------------------------|-----------------------------|-----------------------------|-----------------------------|--2--2--2--2--2--2----2~-----|--2--2--2--2--2--2------2~---|
-----------------------------|-----------------------------|-----------------------------|-----------------------------|-----------------------------|-----------------------------|--2--2--2--2--2--2----2~-----|--2--2--2--2--2--2------2~---|
-----------------------------|-----------------------------|-----------------------------|-----------------------------|-----------------------------|-----------------------------|--7--7--7--7--7--7-----7~----|--7--7--7--7--7--7----7~-----|
-----------------------------|-----------------------------|-----------------------------|-----------------------------|-----------------------------|-----------------------------|--5--5--5--5--5--5----5~-----|--5--5--5--5--5--5----5~-----|
Solo
------------------------|------------------------|-----------------------|------------------------|------------------------|-----------------------|--/5----5----5----5-----|--5----5----3--3--3--2--|-------2----2----2-----|------------------------|------------------------|-----------------------|
------------------------|-----------------------|------------------------|------------------------|-----------------------|------------------------|--2----2----5--5--5--7--|-------7----7----7-----|--7----7----9--9--9--5--|------------------------|-----------------------|------------------------|
-----------------------|-----------------------|------------------------|-----------------------|-----------------------|------------------------|-------5----5----5-----|--3----3----2----2-----|--/5----5----5----5-----|-----------------------|-----------------------|------------------------|
------------------------|-----------------------|------------------------|------------------------|-----------------------|------------------------|--5----5----3--3--3--2--|-------2----2----2-----|--2----2----5--5--5--7--|------------------------|-----------------------|------------------------|
-----------------------|------------------------|-----------------------|-----------------------|------------------------|-----------------------|-------7----7----7-----|--7----7----9--9--9--5--|-------5----5----5-----|-----------------------|------------------------|-----------------------|
-----------------------|--------------------------------------|-----------------------|--------------------------------------|--3----3----2----2-----|--2-----2--2-----2--2-----2--2-----2--|-----------------------|--------------------------------------|
--------------------------------------|--------------------------------------|--------------------------------------|--------------------------------------|--2-----2--2-----2--2-----2--2-----2--|--2-----2--2-----2--2-----2--0-----2~-|--------------------------------------|--------------------------------------|
End--------------------------------------|--------------------------------------|--------------------------------------|--2--2--2-----------2--2--2-----------|
--------------------------------------|--------------------------------------|--------------------------------------|--------------------------------------|--------------------------------------|--------------------------------------|--2--2--2-----------2--2--2-----------|--2--2--2-----------2--2--2-----------|
--------------------------------------|-------------------||--------------------------------------|-------------------||--------------------------------------|-------------------||--2--2--2-----------2--2--2-----------|-------------------||
~: Vibrato /: Slide
Tap to rate this tab
 
# A B C D E F G H I J K L M N O P Q R S T U V W X Y Z