I Never Came tab with lyrics by Queens Of The Stone Age - Easy chords and tabs for guitar

Queens Of The Stone Age – I Never Came tab

Queens of the Stoneage
  I Never Came
    Lullabies To Paralyze
Standard Tuning

          Ok so this is my first tab, woohoo, I hope I did ok
          enjoy

/  slide up
\  slide down
b  bend
rb release bend
~  vibrato
=  hold

Intro/Verses(every note in the chords play twice) that means they're 16th notes :O|--------------------||--------------------||-4-4--4-4—-4-4--4-4-||-2-2--2-2—-2-2—-2-2-||-2-2--2-2—-2-2—-2-2-||--------------------|
|--------------------||--------------------||-2-2--2-2—-2-2—-2-2—||-0-0--0-0—-0-0--0-0-||-0-0--0-0--0-0--0-0-||--------------------|
|--------------------|
|--------------------| *optional |-6-6--6-6--6-6--6-6-| I add this in to go along w/ the bass |-4-4--4-4--4-4--4-4-| |-5-5--5-5--5-5--5-5-| |--------------------|
|--------------------||--------------------||--------------------||-5-5--5-5--5-5--5-5-||-5-5--5-5--5-5--5-5-||-3-3--3-3--3-3--3-3-|
|--------------------|
|--------------------| *optional instead of last bar |--------------------| again, to go along with bass |-5-5--5-5--4-4--4-4-| |-5-5--5-5--4-4--4-4-| |-3-3--3-3--2-2--2-2-|
At one portion of the song they play over these chords with a little bit of a riff goin something like this
|------------------------------------||-3/5-5-5~-5/7-8~--------7-----7-----||-----------------6~-6b7---6b7---6~--||------------------------------------||------------------------------------||------------------------------------|
|--------------------------------------| |-3/5-5-5~-5/7-8~--------7--7----------|
OR |-----------------6~-6b7===7rb6--------|release the bend slowly. |--------------------------------------|you should play the |--------------------------------------|7th fret on the b string |--------------------------------------|as you release the bend repeat a few times with one of these endings|-3/7-7-7-7---------||-----------8-8-8-8-||-------------------||-------------------||-------------------||-------------------|
|--------------------||-5/8-8-8-8\-7-7-7-7-||--------------------||--------------------||--------------------||--------------------|
|-3/7-7-7-7\-5-5-5-5-||--------------------||--------------------||--------------------||--------------------||--------------------|
Chorus
|-7-----7-----7-----7----||-8-----8-----8-----8----||-9-----9-----9-----8----||-9--9--9--9--9--9--9—-9-||-7--7--7--7--7--7--7—-7-||----0-----0-----0-----0-|
1 + 2 + 3 + 4 +
|-8-------8-------8-------8------||-8-------8-------8-------8------||-9-------9-------9-------9------||-10--10--10--10--10--10--10—-10-||-10--10--10--10--10--10--10—-10-||-8---8---8---8---8---8---8---8--|
1 + 2 + 3 + 4 +
|-5-----5-----5-----5----||-5-----5-----5-----5----||-6-----6-----6-----6----||-7--7--7—-7--7--7--7—-7-||-7--7--7--7--7--7--7—-7-||-5--5-----5-----5-----5-|
1 + 2 + 3 + 4 +
|-7--7--7--7--7--7--7--7-||-7--7--7--7--7--7--7--7-||-9--9--9--9--9--9--9--9-||-9--9--9--9--9--9--9—-9-||-7--7--7--7--7--7--7—-7-||----0-----0-----0-----0-|
1 + 2 + 3 + 4 +
|-7--7--7--7--7--7--7--7-||-8--8--8--8--8--8--8--8-||-9--9--9--9--9--9--9--9-||-9--9--9--9--9--9--9—-9-||-7--7--7--7--7--7--7—-7-||----0-----0-----0-----0-|
1 + 2 + 3 + 4 + overlapping last portion before the little riffs
|---------------------------------||-7---7---7---7---8---8---8---8---||---9---9---9---9---9---9---9---9-||---------------------------------||---------------------------------||---------------------------------| x2
|------------------------------------------||-10---10---10---10---10---10---10---10----||----9----9----9----9----9----9----9-----9-||------------------------------------------||------------------------------------------||------------------------------------------|
|-----------------10-10-10-10-12-12-12-12-||-12---12---12----12-12-12-12-12-12-12-12-||----9----9----9--------------------------||-----------------------------------------||-----------------------------------------||-----------------------------------------|
Riffs
|----------------------------------||----------------------------------||----------------7-6---------------||--------7-9-7-9-----9-7-9-5-7-4-5-||-7-9-10---------------------------||----------------------------------|
OR! This is more accurate to the song|-----------------------------------||-----------------------------------||----------------7-6----------------||--------7-9-7-9-----9-7-9----9---9-||-7-9-10-------------------10---9---||-----------------------------------|
|-------------------------------------||----------------8-7------------------||--------------------9-7-9---7--------||--------7-9-7-9-----------9---7-9----||-7-9-10---------------------------7--||-------------------------------------|
End Do the riffs a couple of times through and then
|--------------------------------------------------||--------------------------------------------------||--------------------------------------------------||--------------------------------------------------||-7-7-7-7-7-7/9-9/10-10-10-10\9-9-9-9/12-12-12-12\-||--------------------------------------------------|
|--------------------------------------------------||--------------------------------------------------||--------------------------------------------------||--------------------------------------------------||-10-10-10-10/14-14-14-14\12-12-12-12--------------||--------------------------------------------------|
Please rate this tab:
x1.0