Dream tab with lyrics by Quo Vadis - Easy chords and tabs for guitar

Quo Vadis – Dream tab

Artist: Quo Vadis
Song:   Dream
Album:  Day Into Night
Year:   2001

Gtr I (E A D G B E) - Arie (Clean)
Gtr II (E A D G B E) - Bart (Clean)
Gtr III (E A D G B E) - Arie (Distortion)
Gtr IV (E A D G B E) - Bart (Distortion)

*Note I picked this up off another site. It seems to have
been done in guitar pro and then exported. I take no credit
for the author's work.*

Gtr II|--------------------------|------------------------||----------5-----6--6s8----|----------5----5s6------||-------7-----7----------9-|-------5-----------7----||----7---------------------|----5-------------------||-5------------------------|-3----------------------||--------------------------|------------------------|
|------------------------------|-------0-------------||----------3-----3s6--5h6p5----|---------------------||-------3-----5-------------7--|----------5----------||----3-------------------------|----5----------5-----||-1----------------------------|-3-------------------||------------------------------|---------------------|
|--------------------------|------------------------||----------5-----6--6s8----|----------5----5s6------||-------7-----7----------9-|-------5-----------7----||----7---------------------|----5-------------------||-5------------------------|-3----------------------||--------------------------|------------------------|
|------------------------------|-----------0----------|||----------3-----3s6--5h6p5----|----------------------|||-------3-----5-------------7--|--------5-------5-----|||----3-------------------------|-----5----------------|||-1----------------------------|--3-------------------|||------------------------------|----------------------||
Gtr II|------------------------------|------------------------------||---------6--^1--------5h6p5---|------------------------------||------------^0--------------5-|----------3--^2----!2--0------||------7-----^0----------------|-------3-----^3----!3----2----||-5----------------------------|-1-----------^1------------3--||------------------------------|------------------------------|
|----------------------------|------------------------------||--------6--^1-------5h6p5---|------------------------------||-----------^0-------------5-|----------3--^2----!2---------||------7----^0---------------|-------3-----^3----!3----3h5--||-5--------------------------|-1-----------^1--------3------||----------------------------|------------------------------|
Gtrs I, II|----------------------------|------------------------------||--------6--^1-------5h6p5---|------------------------------||-----------^0-------------5-|----------3--^2----!2--0------||------7----^0---------------|-------3-----^3----!3----2----||-5--------------------------|-1-----------^1------------3--||----------------------------|------------------------------|
|----------------------------|------------------------------|||--------6--^1-------5h6p5---|------------------------------|||-----------^0-------------5-|----------3--^2----!2---------|||------7----^0---------------|-------3-----^3----!3----3h5--|||-5--------------------------|-1-----------^1--------3------|||----------------------------|------------------------------||
Gtr I|-------------------------------|----------------------------------||-----------------------10------|----------------------------------||------<7>---------9h10----10-9-|--7-----------<12>----12---9---10-||-----------<7>-----------------|--------<12>----------------------||-5-----------------------------|----------------------------------||-------------------------------|----------------------------------|
| | Gtr II |
|-------------------------------|----------------------------------||-------------------------------|----------------------------------||-------------------------------|----------------------------------||-7-----------------------------|--3-----------------------(3)-----||-5-----------------------------|--1-----------------------(1)--10-||-------------------------------|----------------------------------|
|---------------------------|---------------------------------||---------------------------|---------------------------------||----------------5h=7p==5---|------5-----5-------------(5)----||--8-------------8-(8)-(8)--|-8-------------------------------||---------------------------|---------------------------------||---------------------------|---------------------------------|
| |
|---------------------------|---------------------------------||---------------------------|---------------------------------||---------------------------|---------5-----------------------||--8------8------7----------|-8----------7----(7)h=8----7-----||--6------6------6----------|-5----------8----(8)-(8)---8-----||---------------------------|---------------------------------|
|----------------------------|-------------------------------||----------------------------|------10--11---11--------10----||--7--------5--------7-------|-12----------------------------||----------------------------|-------------------------------||----------------------------|-------------------------------||----------------------------|-------------------------------|
| |
|----------------------------|-------------------------------||----------------------------|-------------------------------||----------------------------|---------------10--------------||--8----x--10----------------|-------------------------12----||-10----x--10-------10s=12---|-13----------------------------||----------------------------|-------------------------------|
|----------------------------|----------------------------------------10-|||--4-------------------------|------------10h11p10------------8h10-11----|||---------------------10-----|-5-------------------10p9----10------------|||----------------------------|--------------------------12---------------|||----------------------------|-------------------------------------------|||----------------------------|-------------------------------------------||
| |
|----------------------------|-------------------------------------------|||----------------------------|-------------------------------------------|||----------------------------|-------------------------------------------|||--8------x---8--------7h8p7-|-5------x----7----------------4------------|||-10------x--10--------8-----|-3------x----5----------------5------------|||----------------------------|-------------------------------------------||
Gtr I|------------------------------|------------------------||---8--------------------------|------------------------||------------------------------|---------7--------------||----------------------9-------|-7----x--7-------7------||---------------------10-------|-9----x--9-------9------||------------------------------|------------------------|
|
| Gtr II|------------------------------|------------------------||------------------------------|------------------------||-------------7----------------|---------7--------------||---9-----x---9--------9-------|-7----x--7-------7------||--10-----x--10-------10-------|-9----x--9-------9------||------------------------------|------------------------|
|----------------------|------------------------||----------------------|------------------------||-------5--4-----------|------------------------||----5----------5------|-5-----5s7--4-----------||-3------------------3-|------------------5-----||----------------------|------------------------|
| |
|----------------------|------------------------||----------------------|------------------------||-------5--4-----------|------------------------||----5----------5------|-5-----5s7--4-----------||-3------------------3-|------------------5-----||----------------------|------------------------|
|----------------------------|------------------------||----------------------------|------------------------||-----------7----------------|---------7--------------||--9----x---9--------9-------|-7----x--7-------7------||-10----x--10-------10-------|-9----x--9-------9------||----------------------------|------------------------|
| |
|----------------------------|------------------------||----------------------------|------------------------||-----------7----------------|---------7--------------||--9----x---9--------9-------|-7----x--7-------7------||-10----x--10-------10-------|-9----x--9-------9------||----------------------------|------------------------|
|----------------------|--------------------------|||----------------------|--------------------------|||-------5--4-----------|--------------------------|||----5----------5------|-5-----5s7--4-------------|||-3------------------3-|------------------5-------|||----------------------|--------------------------||
| |
|----------------------|--------------------------|||----------------------|--------------------------|||-------5--4-----------|--------------------------|||----5----------5------|-5-----5s7--4-------------|||-3------------------3-|------------------5-------|||----------------------|--------------------------||
Gtr I|------------------|----------|-------------||---------12-------|----------|-12---10-----||-9s11h12----12-11-|-9--------|-(9)--11-----||------------------|----------|-------------||------------------|----------|-------------||------------------|----------|-------------|
|
| Gtr II|------------------|----------|-------------||------------------|----------|--5----7-----||----------4-------|----------|--4----7-----||-2s=4h=5-----5--4-|-2--------|-------------||------------------|----------|-------------||------------------|----------|-------------|
|----------------------|----------------------||------------12--------|----------------------||-9s=11h=12---------12-|-11-------11--11h==12-||----------------------|----------------------||----------------------|----------------------||----------------------|----------------------|
| |
|----------------------|----------------------||----------------------|----------------------||-------------4--------|-----------2----------||-2s==4h==5----------5-|--4------------4------||----------------------|----------------------||----------------------|----------------------|
|---0----------------|--------------0----||-<12>---------------|-------------------||---------------4----|--------7----------||------------5-----5-|-------------------||---------3----------|-5-----------------||--------------------|-------------------|
| |
|--------------------|-------------------||--------------------|-------------------||---------0----------|-----------7--9----||---2----------------|--------7----------||---------------3----|-5--7s9------------||--------------------|-------------------|
|-------------|--------<12>--|-------------|-----------------||-------------|--------------|-<12>--------|-(<12>)----------||-9-----------|-(9)----------|-------------|-----------------||-------------|--------------|-------------|-----------------||-------------|--------------|-------------|-----------------||-------------|--------------|-------------|-----------------|
| |
|-------------|--------------|-------------|-----------------||-------------|----------5---|---7----8-7--|--------7--------||-------4-----|----------4---|---7---------|----------7--9---||-2s4h5---5-4-|--2-----------|-------------|----7------------||-------------|--------------|-------------|-----------------||-------------|--------------|-------------|-----------------|
|------------------|------------------|---------------|----------------------|||------------------|------------------|---------------|----------------------|||-9----------------|-(9)--------------|------7h===9---|-9s11-----------------|||------------------|-------------9----|-7-------------|----------------------|||------------------|------------------|---------------|----------------------|||------------------|------------------|---------------|----------------------||
| |
|------------------|------------------|---------------|------------------------|||------------------|------------------|---------------|------------------------|||----------4-------|----------2-------|------0--------|--------------7--9------|||-2s=4h=5--------5-|--4----------4---|------2--------|-----------7-------------|||------------------|------------------|-3---------3---|-5-----7s9--------------|||------------------|------------------|---------------|------------------------||
Gtr I|---------------|----------|---------------|-------------||---------------|----------|---------------|-6----6-6h8--||---------------|----------|-----5-(5)s7---|-------------||-----------7---|-5----3h5-|-2-------------|-------------||--5------------|----------|---------------|-------------||---------------|----------|---------------|-------------|
|
| Gtr II|---------------|----------|---------------|-------------||---------------|----------|---------------|-------------||-10----12-10---|-9----5h7-|-9-----10--9---|-7------7-9--||---------------|----------|---------------|-------------||---------------|----------|---------------|-------------||---------------|----------|---------------|-------------|
|----------------------|-----------------||-8s10----8h=10p8-6----|-8----8p=6--5----||----------------------|-----------------||----------------------|-----------------||----------------------|-----------------||----------------------|-----------------|
| |
|----------------------|-----------------||----------------------|-----------------||-9s10----9h=10p9-7----|-9----9p=7--5----||----------------------|-----------------||----------------------|-----------------||----------------------|-----------------|
|---------------------|----------------||-6---------6---6p==5-|----------------||---------------------|--7--------7h=9-||---------------------|----------------||---------------------|----------------||---------------------|----------------|
| |
|---------------------|-10-------------||------------------10-|----------10----||-7------------10-----|----------------||----------12---------|----------------||---------------------|----------------||---------------------|----------------|
|-------------------|---------------|----------------|---------------||-------------------|---------------|----------------|---------------||-------------------|--5------------|----------------|-10----10h12---||--7----------------|---------------|-7s9-9s10-10s12-|---------------||-------------------|---------------|----------------|---------------||-------------------|---------------|----------------|---------------|
| |
|-------------------|---------------|----------------|---------------||-------------------|---------------|-----5----------|--6----(6)(6)--||-10-----12p==10----|--9-----(9)(9)-|-----------5----|--7-----7h=9---||-10----(10)-(10)---|-10-----10h12--|-7--------------|---------------||-------------------|---------------|----------------|---------------||-------------------|---------------|----------------|---------------|
|--------------------------|------------------------||--------------------------|------------------------||-12s14----12h=14p12-10----|-12----12p=10------9----||--------------------------|------------------------||--------------------------|------------------------||--------------------------|------------------------|
| |
|--------------------------|------------------------||--6--------8--------10----|--8-----6h==8p==6--5----||--7--------9--------10----|--9-----7--(7)-(7)-5----||--------------------------|------------------------||--------------------------|------------------------||--------------------------|------------------------|
|---------------------|--------|||---------------------|--------|||-10------------------|-10-----|||--------------12-----|--------|||---------------------|--------|||---------------------|--------||
| |
|---------------------|--------|||---------------------|--------|||--7------------------|-14-----|||--7-------12s=10s=12-|--------|||---------------------|--------|||---------------------|--------||
Gtr I|-^0-----------|-(0)------|-------------|---^0---------||-^0-----------|-(0)------|-------------|---^0---------||-^9-----------|-(9)------|-------------|---^2---------||-^9-----------|-(9)------|-------------|---^4---------||-^7-----------|-(7)------|-2-----------|---^2---------||-^0-----------|-(0)------|-------------|--------------|
|
| Gtr II|--------------|----------|-------------|--------------||--------------|----------|-----------3-|-3s=5-----3---||--------4-----|----------|-------4-----|--------------||--2s4h5---5-4-|--2-------|-----4-------|--------------||--------------|----------|-2h5---------|--------------||--------------|----------|-------------|--------------|
|-^<5>---------------|-(<5>)-----------------|------------------|----------||-^<5>---------------|-(<5>)-----------------|------------------|----------||-^<5>---------------|-(<5>)-----------------|-------7----------|-7s=9-----||--------------------|-----------------------|-------------7----|----------||--------------------|-----------------------|------------------|----------||--------------------|-----------------------|-5----------------|----------|
| |
|--------------------|-----------------------|------------------|----------||---------------6h=8-|---6-------------------|------------------|----------||------------7-------|------------9----(9)p5-|------------------|----------||---------7----------|-----------------------|-------------7h=9-|-9s10-----||---5h=8-------------|-----------------------|----------7-------|----------||--------------------|-----------------------|-5s=7--8----------|----------|
|-------------|-^3--------------|-(3)----------|-------6-------||-------------|-^4--------------|-(4)----------|-----------6---||-------------|-^5--------------|-(5)----------|---------------||---------5---|-^5--------------|-(5)----------|---------------||-3-----------|-^3--------------|-(3)----------|---------------||-------------|-----------------|--------------|---------------|
| |
|-------------|-----------------|--------------|---------------||---------4h6-|--6s8--(8)--4h6--|--------6-----|-----------4---||-------5-----|-----------------|--3-------3---|-^3----7-------||-----5-------|-----------------|--------------|-^5------------||-3h6---------|-----------------|--------------|---------------||-------------|-----------------|--------------|---------------|
|--------------------|-------------|--------------|----------------|||--------------------|-------------|--------------|----------------|||--8-----------------|-------------|------8h=10---|--10-----(10)---|||--------------------|-10----10----|--8-----------|----------------|||--------------------|-------------|--------------|----------------|||--------------------|-------------|--------------|----------------||
| |
|-----------------10-|-------11----|--------------|----------------|||-----------13-------|-11-------13-|--------------|----------------|||--------12----12----|-------------|-10-----------|-^10-----(10)---|||-10--13-------------|-------------|--------------|-^12-----(12)---|||--------------------|-------------|--------------|-^13-----(13)---|||--------------------|-------------|--------------|----------------||
Gtr I|----------------------------|------------------------------||----------------------------|------------------------------||----------------------------|------------------------------||----------------------------|------------------------------||----------------------------|------------------------------||-5--------------------------|-(5)--------------------------|
|
| Gtr IV|----------------------------|------------------------------||----------------------------|------------------------------||----------------------------|------------------------------||-----------6h7-6--------6h7-|--9p7p6h7p6-------------------||-----6h7h9-------h9-7h9-----|------------h9-7h9-6h7h9-7p6--||-7h9------------------------|------------------------------|
|----------------------------|--------------------------------||----------------------------|--------------------------------||----------------------------|--------------------------------||----------------------------|--------------------------------||----------------------------|--------------------------------||-(5)------------------------|-(5)------------------5h====7---|
| |
|----------------------------|--------------------------------||----------------------------|--------------------------------||----------------------------|--------------------------------||----------------------------|------------6h7h9p7p6-----------||------6h7p6-------6h7h9-7p6-|------6h7h9-----------9p7p6-----||--7h9-------9p7h9-----------|--7h9-----------------------9p5-|
|-----------------------------------|--------------------------||-----------------------------------|--------------------------||-----------------------------------|--------------------------||-----------------------------------|--------------------------||-----------------------------------|--------------------------||-7---------------------------------|-(7)----------------------|
| |
|-----------------------------------|--------------------------||-----------------------------------|--------------------------||-----------------6h8h9p8p6---------|--------------------------||-----------6h7h9-----------9p7p6h7-|--9p7p6h7p6---------------||-----6h7h9-------------------------|------------9p7p6h7h9p7p6-||-7h9-------------------------------|--------------------------|
|-------------------------|-------------------------------||-------------------------|-------------------------------||-------------------------|-------------------------------||-------------------------|-------------------------------||-9-----------------------|-------------------------------||-------------------------|-7-----------------------------|
| |
|-------------------------|-------------------------------||-------------------------|-------------------------------||-------------------------|-------------------------------||-------------------------|-----------6h7h9p7p6-----------||-------------6h7p6-------|-6h7-6h7h9-----------7h9p7p6---||-7h9p7-9p7h9-------9p7h9-|-----------------------------7-|
|----------------------------|-------------------------------||----------------------------|-------------------------------||----------------------------|-------------------------------||----------------------------|---------------6---6p====4-----||----------------------------|-------------------------------||-5--------------------------|-(5)---------------------------|
| |
|----------------------------|-------------------------------||----------------------------|-------------------------------||----------------------------|-------------------------------||-----------6h7-6--------6h7-|--9p7p6h7p6--------------------||-----6h7h9-------h9-7h9-----|------------h9-7h9-6h7h9---7p6-||-7h9------------------------|-------------------------------|
|---------------------------|-------------------------------||---------------------------|-------------------------------||---------------------------|-------------------------------||-6-------------------------|-------------------------------||---------------------------|-7-----------------------------||---------------------------|---------------------5h====7---|
| |
|---------------------------|-------------------------------||---------------------------|-------------------------------||---------------------------|-------------------------------||---------------------------|-----------6h7h9p7p6-----------||-----6h7p6-------6h7h9-7p6-|-----6h7h9-----------9p7p6-----||-7h9-------9p7h9-----------|-7h9-----------------------9p5-|
|-----------------------------------|--------------------------||-----------------------------------|--------------------------||-----------------------------------|--------------------------||-----------------------------------|--------------------------||-----------------------------------|--------------------------||-7---------------------------------|-(7)----------------------|
| |
|-----------------------------------|--------------------------||-----------------------------------|--------------------------||-----------------6h8h9p8p6---------|--------------------------||-----------6h7h9-----------9p7p6h7-|--9p7p6h7p6---------------||-----6h7h9-------------------------|------------9p7p6h7h9p7p6-||-7h9-------------------------------|--------------------------|
Gtr I|----------------------------|--------------------------------------|||----------------------------|--------------------------------------|||----------------------------|--------------------------------------|||----------------------------|--------------------------------------|||----------------------------|-9------------------------------------|||-(7)------------------------|-------------------------7------------||
|
| Gtr III|----------------------------|--------------------------------------|||----------------------------|--------------------------------------|||----------------------------|-------------------------------16-----|||----------------------------|--------------------------------------|||----------------------------|--------------------------------------|||----------------------------|--------------------------------------||
|
| Gtr IV|----------------------------|--------------------------------------|||----------------------------|--------------------------------------|||----------------------------|-------------------------6h8h9p===8p6-|||----------------------------|---6h7-9p7p6-------6h7h9--------------|||----------6h7---6-------6h7-|-9-----------9p7h9--------------------|||--7h9p7-9-----9---9p7-9-----|--------------------------------------||
Gtr II|-------------------4---------|-------------------------------------||-----------------------4-----|-------------------------------4-----||-----------------------------|--4----------------------6-----------||---------------------------6-|-------------------6-----------------||--4-----------(4)------------|---------------4---------------------||-----------------------------|-------------------------------------|
|
| Gtr III|-----------------------------|-------------------------------------||----------17----------19-----|--------------14--16----17----16p14--||-18-----------16s=18------16-|-16h=18------------------------------||-----------------------------|-------------------------------------||-----------------------------|-------------------------------------||-----------------------------|-------------------------------------|
|
| Gtr IV|-----------------------------|-------------------------------------||-----------------------------|-------------------------------------||--6s8------------------------|-(8)---------------------------------||-----------------------------|-------------------------------------||-----------------------------|-------------------------------------||-----------------------------|-------------------------------------|
Gtr II|------------^0----------------|-(0)-----------------0----------------||------------^0----------------|-(0)---------------------0------------||------------^2----------------|-(2)---------------------------2------||------------^2----------------|-(2)----------------------------------||--0---------^0----------------|-(0)----------------------------------||------------------------------|--------------------------------------|
|
| Gtr III|------------------------------|----------------------------------12--||-16---------------(16)--14s12-|-14-----------------12-----14---------||------------------------------|-----------------13-------------------||------------------------------|--------------14----------------------||------------------------------|-----------14-------------------------||------------------------------|--------------------------------------|
|-----------------------------2-|--------------------------||-----------^2------------------|--2-----------------------||-----------^4------------------|--------------------------||-----------^4------------------|---------------4----------||-----2-----^2------------------|-----------2--------------||-------------------------------|--------------------------|
| |
|-12h14----------------(14)--14-|-12-------12--------------||-------------------------------|--------------16-------12-||-------------------------------|--------------------------||-------------------------------|--------------------------||-------------------------------|--------------------------||-------------------------------|--------------------------|
|-------------------------------------|-------------------------------|||-------------------------------------|-------------------------------|||-------------13--14--13h14p13--------|-------------------------------|||-11--13--14-------------------14--13-|-11----------------------------|||-------------------------------------|-----12--11--12--11----(11)----|||-------------------------------------|-------------------------------||
| |
|---------12--16--17--16h17p16--------|-------------------------------|||-14s=16-----------------------17--16-|-14----------------------------|||-------------------------------------|-----14--13--14--13----(13)----|||-------------------------------------|-------------------------------|||-------------------------------------|-------------------------------|||-------------------------------------|-------------------------------||
Gtr II|-------------------|------------------------------||-------------------|------------------------------||--3----------------|--(3)-------------------------||-------------------|------------------------------||-------------------|------------------------------||-------------------|------------------------------|
|
| Gtr III|-------------------|------------------------------||-------------------|------------------------------||-12----------------|-(12)--9--11--12--[11]------9-||-------------------|------------------------------||-------------------|------------------------------||-------------------|------------------------------|
|----------------------------------------||-------------------4h5-(5)--------------||--------------6-------------------------||--------6-------------------------------||--4-------------------------------------||----------------------------------------|
| |
|----------------------------------------||----------------------------------------||-11h12p11p9-----------------------------||------------h11-11--------------(11)--9-||----------------------------------------||----------------------------------------|
|--------------------------------------------||-(5)----------------------------------------||--------------------------------------------||--------------------------------------------||--------------------------------------------||--------------------------------------------|
| |
|---------------------------------12h=14-----||---------------------------12h14---------13-||----------------------9---------------------||--9h11-----(11)-----9-----------------------||-----------------11-------------------------||--------------------------------------------|
|---------------------------------||---------------------------------||---------------------------------||----------5----------------------||-----5---------------------------||--3------------------------------|
| |
|---------------------------------||-12-----(12)--13p12s10-12--------||---------------------------------||---------------------------------||---------------------------------||---------------------------------|
|--------------------------------------------------||--------------------------------------------------||--------------------------------------------------||--(5)---------------------------------------------||--------------------------------------------------||--------------------------------------------------|
| |
|--------------------------------------------------||-(12)----(12)--13p12p10h12--13p12p10h12--13p12p10-||--------------------------------------------------||--------------------------------------------------||--------------------------------------------------||--------------------------------------------------|
|--------------------------4-----------------------------||--------------------4h=5--------------------------------||--------------6-----------------------------------------||--------6-----------------------------------------------||--4-----------------------------------------------------||--------------------------------------------------------|
| |
|--------------------------------------------------------||-12h13p12p10h12p10--------------------------------------||-------------------12p11p10-12h13p12p10-9h10h12p10p9----||-----------------------------------------------------12p||--------------------------------------------------------||--------------------------------------------------------|
|-----------------------------------------------------------|||-----------------------------------------------------------|||-------------3----------------------5----------------------|||-------3-----------------------5---------------------------|||--1----------------------3---------------------------------|||-----------------------------------------------------------||
| |
|-----------------------------------------------------------|||---------------10h12h13p12p10------------------------------|||-------9h10h12----------------12p10p9-------------9h10h12--|||-11h12--------------------------------12p10-10h12----------|||-----------------------------------------------------------|||-----------------------------------------------------------||
Gtr I|---------------------------|----------------------------||-10------------------------|-(10)-----------------------||---------------------------|----------------------------||--7------------------------|--(7)-----------------------||---------------------------|----------------------------||---------------------------|----------------------------|
|
| Gtr II|---------------------------|----------------------------||-!6------------------------|-----------------------10---||---------7--7s9p=7---------|-------9p=7-----9s=10-------||------7-------------8--7---|--(7)--------8--------------||---------------------------|----------------------------||---------------------------|----------------------------|
|
| Gtr III|---------------------------|----------------------------||-10------------------------|-(10)-----------------------||---------------------------|----------------------------||---------------------------|----------------------------||---------------------------|----------------------------||---------------------------|----------------------------|
W +W|-------------------------------|----------------------------||-8-----------------------------|--(8)-----------------------||-------------------------------|----------------------------||-5-----------------------------|--(5)-----------------------||-------------------------------|----------------------------||-------------------------------|----------------------------|
| |
|-------------------------------|----------------------------||-------------------------------|---5----------5--------5----||----10---------10--------10----|--------5--------5--------5-||---------8---------8---------8-|-----------5--------5-------||------------8---------8--------|----------------------------||-------------------------------|----------------------------|
| |
|-------------------------------|----------------------------||---(10)------------------------|-(10)-----------------------||-------------------------------|----------------------------||-------------------------------|----------------------------||-------------------------------|----------------------------||-------------------------------|----------------------------|
|-----------------------------|-----------------------------||-10--------------------------|-(10)------------------------||-----------------------------|-----------------------------||--7--------------------------|--(7)------------------------||-----------------------------|-----------------------------||-----------------------------|-----------------------------|
| |
|-----------------------------|-----------------------------||--6--------------------------|-----------------------------||---------7s=9--10-----7h9--7-|--(7)--------7--(7)s=9--10/--||------7------------7---------|----------7------------------||-----------------------------|-----------------------------||-----------------------------|-----------------------------|
| |
|-----------------------------|-----------------------------||--6--------------------------|--(6)------------------------||-----------------------------|-----------------------------||-----------------------------|-----------------------------||-----------------------------|-----------------------------||-----------------------------|-----------------------------|
|-------------------------------|----------------------------------|||---6---------------------------|-(6)------------------------------|||-------------------------------|----------------------------------|||---3---------------------------|-(3)------------------------------|||-------------------------------|----------------------------------|||-------------------------------|----------------------------------||
| |
|-------------------------------|----------------------------------|||-------------------------------|----------------------------------|||--12p==10-------------------12-|-------13h=15--------------12-----|||-----------10-----------10-----|-13----------------13----------15-|||--------------------10---------|---------------13------12---------|||-------------------------------|----------------------------------||
| |
|-------------------------------|----------------------------------|||--(6)--------------------------|-(6)------------------------------|||-------------------------------|----------------------------------|||-------------------------------|----------------------------------|||-------------------------------|----------------------------------|||-------------------------------|----------------------------------||
Gtr I|---------------------------|----------------------------||-10------------------------|-(10)-----------------------||---------------------------|----------------------------||--7------------------------|--(7)-----------------------||---------------------------|----------------------------||---------------------------|----------------------------|
|
| Gtr II|---------------------------|----------------------------||--6------------------------|-----------------------10---||---------7--7s9p=7---------|-------9p=7-----9s=10-------||------7-------------8--7---|--(7)--------8--------------||---------------------------|----------------------------||---------------------------|----------------------------|
|----------------------------|-------------------------||---8------------------------|-13----------------------||----------------------------|-------------------------||---5------------------------|-10----------------------||----------------------------|-------------------------||----------------------------|-------------------------|
| |
|----------------------------|-------------------------||----------------------------|--5--------5--------5----||--10--------10--------10----|-----5--------5--------5-||------8---------8---------8-|--------5--------5-------||---------8---------8--------|-------------------------||----------------------------|-------------------------|
|------------------------------|----------------------||-10s=11--10-------------------|--(10)----------------||------------------------------|----------------------||--7s==8---7-------------------|---(7)----------------||------------------------------|----------------------||------------------------------|----------------------|
| |
|------------------------------|----------------------||--6---------------------------|----------------------||----------7s=9--10-----7h9--7-|---(7)----------------||------7-------------7---------|----------------------||------------------------------|----------------------||------------------------------|----------------------|
|----------------------------|---------||----------------------------|---------||----------------------------|---------||----------------------------|---------||----------------------------|---------||----------------------------|---------|
| |
|----------------------------|---------||--6-------------------------|---------||--------7s=9--10-----7h9--7-|--(7)----||-----7------------7---------|---------||----------------------------|---------||----------------------------|---------|
Gtr III PM--------------------------------|| PM|---------------------|------------||-----------------|-----------------|||---------------------|------------||-----------------|-----------------|||---------------------|------------||-----------------|-----------------|||---------------------|------------||-7-7-7-7-7-7-7-7-|-7-7-7-7-7-7-7-0-|||---------------------|------------||-5-5-5-5-5-5-5-5-|-5-5-5-5-5-5-5-0-|||---------------------|------------||-----------------|-----------------||
|
| Gtr IV| PM--------------------------------|| PM|---------------------|------------||-----------------|-----------------|||-6-------------------|------------||-----------------|-----------------|||------7s9-10---7h9-7-|-(7)--------||-----------------|-----------------|||----7--------7-------|------------||-7-7-7-7-7-7-7-7-|-7-7-7-7-7-7-7-0-|||---------------------|------------||-5-5-5-5-5-5-5-5-|-5-5-5-5-5-5-5-0-|||---------------------|------------||-----------------|-----------------||
Gtr III|-----------------------------||-13h=15-----15-----15--13----||-----------------------------||-----------------------------||-----------------------------||-----------------------------|
|
| Gtr IV| PM PM-||-----------------------------||-----------------------------||-----------------------------||--7---7--x---7--x---0---3----||--5---5--x---5--x---0---3----||-----------------------------|
|----------------------------12h13h15p13p12-------||-(13)--------------12h13h15----------------15p13-||-------------12h14-------------------------------||-------------------------------------------------||-------------------------------------------------||-------------------------------------------------|
| |
|-------------------------------------------------||-------------------------------------------------||-------------------------------------------------||--(3)--------------------------------------------||--(3)--------------------------------------------||-------------------------------------------------|
|-------------------------------------------------------||-15p13p12h13p12----------------------------------------||----------------14p12-14p12----12----------------------||----------------------------15----15p14h15p14p12-------||-------------------------------------------------15h17-||-------------------------------------------------------|
|
| PM PM---||-------------------------------------------------------||-------------------------------------------------------||-------------------------------------------------------||--3-----5-----x-----3-----x-----0----------------------||--3-----3-----x-----3-----x-----0-----5----------------||--------------------------------------3----------------|
|--------------------------------------------------------------------||--------------------------------------------------------------------||-----------14h15h17p15p14-------------------------------------------||-14h=15h17----------------17p15p14------------------14h15h17p15p14--||-------------------------------------17p15-14h15h17-----------------||--------------------------------------------------------------------|
| |
|--------------------------------------------------------------------||--------------------------------------------------------------------||--------------------------------------------------------------------||---------------------------------0----------------------------------||-(5)-----------5-----------x-----0----------------------------------||-(3)-----------3-----------x----------------------------------------|
|-----------------------------|-----------------------------------||----------8--10--------------|-----------------------------------||----7--9---------9--9b10=====|=(9)------(9)r(9)-9b10r=(9)--7s=5--||-7---------------------------|-----------------------------------||-----------------------------|-----------------------------------||-----------------------------|-----------------------------------|
|
| PM PM-||-----------------------------|-----------------------------------||-----------------------------|-----------------------------------||-----------------------------|-----------------------------------||-7--7--x--7---x--0--3--------|-(3)-------------------------------||-5--5--x--5---x--0--3--------|-(3)-------------------------------||-----------------------------|-----------------------------------|
|--------------------------||--------------------------||-5s=7--7s=9--9s=10--12----||--------------------------||--------------------------||--------------------------|
|
| PM PM-||--------------------------||--------------------------||--------------------------||-3--5--x--3--x---0--------||-3--3--x--3--x---0---5----||---------------------3----|
|----------------------------------------------------||----------------------------------------------------||-(12)---10--9h10p9----------9h10h12p10p9------------||-------------------12p10h12--------------12p9h10h12-||----------------------------------------------------||----------------------------------------------------|
|
| PM----------------------------------|||-----------------------------------------------------|||-----------------------------------------------------|||-----------------------------------------------------|||----------------------------------3------------------|||--(5)-------5---------------3----------3-------------|||--(3)-------3----0-----3-----------------------------||
PM|--------------------|---------||--------------------|---------||-9-10---10---10--9--|--(9)----||--------10---10-10--|-(10)----||--------------------|---------||--------------------|---------|
|
| PM PM||--------------------|---------||--------------------|---------||--------------------|---------||-7--7-x--7-x--0--3--|--(3)----||-5--5-x--5-x--0--3--|--(3)----||--------------------|---------|
PM ~|----------------------------||----------------------------||-10--10-----10-----10--7----||-10--10-----10-----10-------||----------------------------||----------------------------|
|
| PM PM-||----------------------------||----------------------------||----------------------------||--3---5--x---3--x---0-------||--3---3--x---3--x---0--5----||-----------------------3----|
|--------------------------------------------------------||--------------------------------------10h12h13-10h12h13-||-(7)s=9--10h12p10p9-----------9h10h12-------------------||--------------------12p10h12----------------------------||--------------------------------------------------------||--------------------------------------------------------|
| |
| PM---------------------------------------|||---------------------------------------------------------|||---------------------------------------------------------|||---------------------------------------------------------|||---------------------------0-----------------------------|||-(5)------5----------5-----0-----------------------------|||-(3)------3-----0----3-----------------------------------||
|-----------------------|---------------------------||-15----13-15----13-----|---------------------------||----14-------14--------|---------------------------||-------------------15--|-(15)--(15)s14-15s17-17s19-||-----------------------|---------------------------||-----------------------|---------------------------|
| |
| PM PM||-----------------------|---------------------------||-----------------------|---------------------------||-----------------------|---------------------------||--7--7--x--7--x--0--3--|--(3)----------------------||--5--5--x--5--x--0--3--|--(3)----------------------||-----------------------|---------------------------|
|------------------------------------------------||------------------------------------------------||------------------------------------------------||-17-----(17)s=15--14h15p14----------14h15p14s12h||---------------------------17p15h17-------------||------------------------------------------------|
| |
| PM PM---||------------------------------------------------||------------------------------------------------||------------------------------------------------||--3--5----x----3---x-----0----------------------||--3--3----x----3---x-----0-----5----------------||-------------------------------3----------------|
|--------------------------------------------------------------------|||--------------------------------------------------------------------|||--------------------------------------------------------------------|||-14p=12----------------------------------12h14h15p14p12-------------|||--------15p13p12----------------12h13h15----------------15p13p12h13-|||-----------------15p13p12h13h15-------------------------------------||
| |
| PM-----------------------------------------------|||----------------------------------------------------------------------|||----------------------------------------------------------------------|||----------------------------------------------------------------------|||---------------------------------------3------------------------------|||-(5)-----------5-----------------3-----------3------------------------|||-(3)-----------3-----0-----3------------------------------------------||
Gtr I|------------------------------------------------||-------15-17-18----18-(18)-(18)--------15h17p15-||-14s15----------14------------------------------||------------------------------------------------||------------------------------------------------||------------------------------------------------|
| |
| Gtr II|------------------------------------------------||------------------------------------------------||--------------0---------------------0-----------||--------7------------------------7------7-------||--5---------------------------------------------||--------------------6---------------------------|
| |
| Gtr III| >|------------------------------------------------||------------------------------------------------||------------------------------------------------||-12---------------------------------------------||------------------------------------------------||------------------------------------------------|
|-----------------------------------------||-----------------------------------------||--15------14-14h15-14--------------------||------------------------15--14--14h15p14-||-----------------------------------------||-----------------------------------------|
| |
|-----------------------------------------||-----------------------------------------||-----------0-----------------0-----------||-------7-----------------7-------7-------||-----------------------------------------||---5-------------8-----------------------|
| |
|-----------------------------------------||-----------------------------------------||-----------------------------------------||-(12)------------------------------------||-----------------------------------------||-----------------------------------------|
|--------------------------------|------------------------------------||--------------------------------|------------------------------------||--------------------------------|------------------------------------||--------------------------------|--15---------14--(14)---------------||--17---------15--(15)-----------|------------------------------------||--------------------------------|------------------------------------|
| |
|--------------------------------|------------------------------------||--------------------------------|------------------------------------||----------0----------------0----|----------0-------------------------||-------7----------------7-----7-|-------7----------------7--5h7p5----||---5----------------------------|---------------------------------6--||--------------6-----------------|---5----------8---------------------|
| |
|--------------------------------|------------------------------------||--------------------------------|------------------------------------||--------------------------------|------------------------------------||-(12)---------------------------|-(12)-------------------------------||--------------------------------|------------------------------------||--------------------------------|------------------------------------|
Gtr I|-----------------------------------||-----------------------------------||-<12>--------<12>--(<12>)----------||-----------------------------------||-----------------------------------||-----------------------------------|
| | Gtr II |
|-----------------------------------||-----------------------------------||----------0-------------------0----||-------7-------------------7-----7-||---5-------------------------------||---------------6-------------------|
|-------------------------------------------||---------15b17--(15)--15----------15h17p15-||-(<12>)------------------------------------||-------------------------------------------||-------------------------------------------||-------------------------------------------|
| |
|-------------------------------------------||-------------------------------------------||------------------0------------0-----------||----------7-----------------7------7-------||-------------------------------------------||----5------------------8-------------------|
|--------------------------------|-------------------------------||--------------------------------|-------------------------------||-14h15p14--------------------14-|-------------------------------||----------15-14--15-------------|-------------------------------||--------------------------------|----17-----15-------------(15)-||--------------------------------|-------------------------------|
| |
|--------------------------------|-------------------------------||--------------------------------|-------------------------------||--------------0-----------0-----|--------0----------------------||--------7--------------7------7-|-----7-----------7--5h7p5------||--5-----------------------------|----------------------------6--||------------------6-------------|-5----------8------------------|
||------------------------|-----------------------|||o-----------------------|-----------------------|||------------------------|-----------------------|||------------------------|-15------14-(14)-------|||o-17------15-(15)-------|-----------------------|||------------------------|-----------------------|
| |
||------------------------|-----------------------|||o-----------------------|-----------------------|||--------0-----------0---|-------0-----------0---|||------7-----------7---7-|-----7-----------7---7-|||o--5--------------------|-----------------------|||-----------6------------|--5-------8------------|
|------------------------------|----------------------------------|||------------------------------|---------------------------------o|||------------------------------|----------------------------------|||------------------------------|-15---------14--(14)--------------|||-17---------15--(15)----------|---------------------------------o|||------------------------------|----------------------------------||
|
| E E E Q E E E E E E Q E T T S E|------------------------------|----------------------------------|||------------------------------|---------------------------------o|||---------0---------------0----|---------0------------------------|||------7---------------7-----7-|------7---------------7--5h7p5----|||--5---------------------------|-------------------------------6-o|||-------------6----------------|--5----------8--------------------||
Please rate this tab:
x1.0