Romeo And Juliet tab with lyrics by Radiohead - Easy chords and tabs for guitar

Radiohead – Romeo And Juliet tab

this song is somewhat easy its pretty basic.....here it is

-> slide down
<- slide up
h- hammer on
p- pull off
~- vibrato


romeo and juliet- Radio head

-----------------------------------------------------------|---------44----------------------44--------------44--------|--------------7---5-----------------7---5-----------7--5---|-----------------------------------------------------------|-----------------------------------------------------------|--5->-7--------------------5->-7---------------------------|
--------------------------------------------------------------|------44---------------44--------------44---------------------|---------7----5------------7--5-------------7----5------------|--------------------------------------------------------------|--------------------------------------------------------------|--------------------------------------------------------------|(repeat 6 more times)
then this twice real quick
--------------------------------------|--------------------------------------|------------------8-------------------|----------7~~~~~9---------------------|--------------------------------------|--------------------------------------|
and then this 7 more times
--------------------------------------------------------------|------44---------------44--------------44---------------------|---------7----5------------7--5-------------7----5------------|--------------------------------------------------------------|--------------------------------------------------------------|--------------------------------------------------------------|
--------------------------------------------------------------|------44---------------44--------------44---------------------|---------7----5------------7--5-------------7----5------------|--------------------------------------------------------------|--------------------------------------------------------------|--------------------------------------------------------------|
then this twice real quick
--------------------------------------|--------------------------------------|------------------8-------------------|----------7~~~~~9---------------------|--------------------------------------|--------------------------------------|
then there is a little bass interlude but after the bass it goes back to this
--------------------------------------------------------------|------44---------------44--------------44---------------------|---------7----5------------7--5-------------7----5------------|--------------------------------------------------------------|--------------------------------------------------------------|--------------------------------------------------------------|
--------------------------------------------------------------|------44---------------44--------------44---------------------|---------7----5------------7--5-------------7----5------------|--------------------------------------------------------------|--------------------------------------------------------------|--------------------------------------------------------------|
--------------------------------------|--------------------------------------|------------------8-------------------|----------7~~~~~9---------------------|--------------------------------------|--------------------------------------|
--------------------------------------------------------------|------44---------------44--------------44---------------------|---------7----5------------7--5-------------7----5------------|--------------------------------------------------------------|--------------------------------------------------------------|--------------------------------------------------------------|
--------------------------------------------------------------|------44---------------44--------------44---------------------|---------7----5------------7--5-------------7----5------------|--------------------------------------------------------------|--------------------------------------------------------------|--------------------------------------------------------------| thats the end of the song enjoy=]]]
Please rate this tab:
x1.0