Another World tab with lyrics by Rammstein - Easy chords and tabs for guitar

Rammstein – Another World tab

----------------------------------------------------------------------------
			  Another World - Rammstein
----------------------------------------------------------------------------

Tabbed by: zaccy
Email: big_zaccy_madden@hotmail.com

Tuning: Drop D - DADGBe
(Works fine in standard)

This song is played for the Final Fantasy X Intro, when the movie clip of the
blitzball game is shown. Nobuo Uematsu composed it for Rammstein 
to play.

here goes..
           
Intro |--------------|--------------|--------------|-------------------||---------14---|---------9----|---------14---|-------------------||--------b16---|--------b11---|--------b16---|-------------------| |--------------|--------------|--------------|--6\5-6\5-6\5-6\3--| x2|--4--4--------|--4--4--------|--4--4--------|--6\5-6\5-6\5-6\3--||--4--4--------|--4--4--------|--4--4--------|-------------------|
Fig. 1 1.-----------------|2.------| |--------------|--------------|--------------|-------------------|--------||--------------|--------------|--------------|-------------------|--------||--------------|--------------|--------------|-------------------|--------| |--------------|--------4\2---|--------6\5-2-|-------------------|---2~---||--4--4--7\6---|--4--4--4\2---|--4--4--6\5-2-|---4~--------------|---2~---||--4--4--7\6---|--4--4--------|--4--4--------|---4~--------------|--------| p.m.--- ------ ------
|--14--14--14--14-|--13--13--13--13--|--14--14--14--14--|--13--13--13--13--||--14--14--14--14-|--13--13--13--13--|--14--14--14--14--|--13--13--13--13--||--13--13--13--13-|--12--12--12--12--|--13--13--13--13--|--12--12--12--12--||-----------------|------------------|------------------|------------------||-----------------|------------------|------------------|------------------||-----------------|------------------|------------------|------------------|
Then
|---------------||---------------||---------------||---------------||---------------||--0-0-2-3-4-5--| p.m.----------
Repeat Fig. 1 two times. then the 2nd guitar joins in while guitar 1 plays the riff below Guitar 1
|--------------------|-----------------|-----------------|------------||--------------------|-----------------|-----------------|------------||-----------6--------|--------6--------|--------6--------|------------||-------6-------6----|----7-------7----|----6-------6----|----5---5~--||--4--4---4---4---4--|--4---4---4---4--|--4---4---4---4--|--4---4-----||--------------------|-----------------|-----------------|------------|
Guitar 2
|------|------|------|------||------|------|------|------||------|------|------|------||------|------|------|------||--4~--|--5~--|--4~--|--3~--||--4~--|--5~--|--4~--|--3~--|
Now, the Guitar 1 goes on with the solo, while the guitar 2 plays rhythm figure 1. Guitar 1 (solo)
|-------------------|--------------------------------------------------||---14~-------------|--------------------------------------------------||--b16~-------------|--16p13h16p13h16p13h16p13--b12--rb12--------------||-------------------|--------------------------------------16-14-------||-------------------|--------------------------------------------16~\--||-------------------|--------------------------------------------------|
|------------------|------------------------|-------------||------------------|------------------------|-------------||------------------|------------------------|-------15~\--||------------------|------14-x-x-15-x-x-16--|--x-x-b17~\--||--x-x-16-x-x-b16--|--x-x-------------------|-------------||------------------|------------------------|-------------|
|-----------------|---------------------|------------||-----------------|------15-----17------|--21-19-17--||--x-x-15-x-x-17--|--x-x-16-x-x-18-x-x--|------------||--x-x-17-x-x-19--|--x-x----x-x----x-x--|------------||-----------------|---------------------|------------||-----------------|---------------------|------------|
Repeat this fast 5 times|----------------------------|---------------||--21-19-17-19-17-19-17-19---|--17*-19*-21*--||----------------------------|---------------||----------------------------|---------------||----------------------------|---------------||----------------------------|---------------|
|--17*-19*-21b23~~~--||--------------------||--------------------||--------------------||--------------------||--------------------|
|---------------|---------------|---------------|--------------||---------------|---------------|---------------|--------------||*--------------|-----16-18-16--|---------------|--------------||*-------16-17--|--18-----------|--18-17-16-----|--------------||--16-19--------|---------------|-----------19--|--16v^v^v^v^--||---------------|---------------|---------------|--------------|
|------------------||------------------||--18v^v^v^v^v^v^--||------------------||------------------||------------------|
|----------------------------------------------------------------||-t9p5h7-t9p5h7-t9p5h7-t9p5h7-t9p5h7-t9p5h7-t9p5h7-t9p5h7-t9p5h7-||----------------------------------------------------------------||----------------------------------------------------------------||----------------------------------------------------------------||----------------------------------------------------------------|
|----------------------------------------------------------||--5*-7*-9*-10*-11*-21*-13*14*-15*-16*-17*-18*-18b19~~~~~--||----------------------------------------------------------||----------------------------------------------------------||----------------------------------------------------------||----------------------------------------------------------|
Guitar 2
Repeat this 6 times and this 1 time|-----------------------------------|-----------------------------------||-----------------------------------|-----------------------------------||-----------------------------------|-----------------------------------| |----------4-----------4---------2--|----------6-----------6---------4--||--4-------4-4-4-4-----4-4-4-4-4-2--|--6-------6-6-6-6-----6-6-6-6-6-4--| |--4-4-4-4-------4-4-4---------4----|--6-6-6-6-------6-6-6---------6----| p.m.- --- --- ----- ----- --- --- -----
|-----------|-----------|-----------||-----------|-----------|-----------||*----------|----4-6-4--|-----------||*---2-4-5--|--6-4-6-4--|--6-5-4-2--||--4-2-4-5--|--6--------|--6-5-4-2--||--4--------|-----------|-----------|
|--------------------|-----------------|-----------------|------------||--------------------|-----------------|-----------------|------------||-----------6--------|--------6--------|--------6--------|------------||-------6-------6----|----7-------7----|----6-------6----|----5---5~--||--4--4---4---4---4--|--4---4---4---4--|--4---4---4---4--|--4---4-----||--------------------|-----------------|-----------------|------------|
After Guitar 1 finishes the solo, repeat Rhythm figure 1 as many times as needed. ============================================================================ Symbols: p.m. --- : Palm Muting h: Hammer On p: Pull-Off t: Tap picking *: Tremolo picking v^v^v: move Tremolo Bar up and down. x: Muted note ~: let ring \: slide down /: slide up b: bending rb: release bend
Please rate this tab:
x1.0