Rammstein - Fruhling In Paris tab

-------------------------------------------------------------------------------
			     Frühling in Paris - Rammstein
-------------------------------------------------------------------------------

Tabbed by: xberserkx
Email: xberzerk311x@yahoo.com

Tuning: 1 Step Down


Verse 1
   
D||--------------------------|--------------------------|A||--------------------------|--------------------------|F||-----4-----------4--------|-----4-----------4--------|C||--------6-----------6-----|--------6-----------6-----|G||-----------6-----------6--|-----------6-----------6--|D||--4-----------4-----------|--4-----------4-----------|
|--------------------------|--------------------------||-----0-----------0--------|--------------------------||--------1-----------1-----|-----4-----------4--------||-----------2-----------2--|--------6-----------6-----||--------------------------|-----------6-----------6--||--0-----------0-----------|--4-----------4-----------|
Play Verse 1 4x's Pre Chorus 1
|--------------------------|--------------------------||-----7-----------7--------|-----5-----------5--------||--------8-----------8-----|--------6-----------6-----||-----------8-----------8--|-----------6-----------6--| 3x's|--6-----------6-----------|--4-----------4-----------||--------------------------|--------------------------|
|--------------------------|--------------------------||--------------------------|--------------------------||-----3-----------3--------|-----3-----------3--------||--------4-----------4-----|--------4-----------4-----||-----------4-----------4--|-----------4-----------4--||--2-----------2-----------|--2-----------2-----------|
Chorus 1
|--------------------------|--------------------------|--------------------------||-----4-----------4--------|-----4-----------4--------|--------------------------||--------4-----------4-----|--------4-----------4-----|-----4-----------4--------||-----------4-----------4--|-----------4-----------4--|--------6-----------6-----||--2-----------2-----------|--2-----------2-----------|-----------6-----------6--||--------------------------|--------------------------|--4-----------4-----------|
|--------------------------|--------------------------|--------------------------||--------------------------|-----4-----------4--------|-----4-----------4--------||-----4-----------4--------|--------4-----------4-----|--------4-----------4-----||--------6-----------6-----|-----------4-----------4--|-----------4-----------4--||-----------6-----------6--|--2-----------2-----------|--2-----------2-----------||--4-----------4-----------|--------------------------|--------------------------|
|--------------------------|--------------------------|--------------------------||--------------------------|--------------------------|--------------------------||-----4-----------4--------|-----4-----------4--------|-----3-----------3--------||--------6-----------6-----|--------6-----------6-----|--------4-----------4-----||-----------6-----------6--|-----------6-----------6--|-----------4-----------4--||--4-----------4-----------|--4-----------4-----------|--2-----------2-----------|
|--------------------------|--------------------------|--------------------------||--------------------------|-----0-----------0--------|-----0-----------0--------||-----3-----------3--------|--------1-----------1-----|--------1-----------1-----||--------4-----------4-----|-----------2-----------2--|-----------2-----------2--||-----------4-----------4--|--------------------------|--------------------------||--2-----------2-----------|--0-----------0-----------|--0-----------0-----------|
Verse 2
|--------------------------|--------------------------||--------------------------|--------------------------||-----4-----------4--------|-----4-----------4--------||--------6-----------6-----|--------6-----------6-----||-----------6-----------6--|-----------6-----------6--||--4-----------4-----------|--4-----------4-----------|
|--------------------------|--------------------------||-----0-----------0--------|--------------------------||--------1-----------1-----|-----4-----------4--------||-----------2-----------2--|--------6-----------6-----||--------------------------|-----------6-----------6--||--0-----------0-----------|--4-----------4-----------|
Play Verse 2 5x's Pre Chorus 2
|--------------------------|--------------------------||-----7-----------7--------|-----5-----------5--------||--------8-----------8-----|--------6-----------6-----||-----------8-----------8--|-----------6-----------6--| 3x's|--6-----------6-----------|--4-----------4-----------||--------------------------|--------------------------|
|--------------------------|--------------------------||--------------------------|--------------------------||-----3-----------3--------|-----3-----------3--------||--------4-----------4-----|--------4-----------4-----||-----------4-----------4--|-----------4-----------4--||--2-----------2-----------|--2-----------2-----------|
Chorus 2
|--------------------------|--------------------------|--------------------------|--------------------------|--------------------------|--------------------------|--------------------------|--------------------------|--------------------------|--9--9--9--9--9--9--9--9--|--9--9--9--9--9--9--9--9--|--6--6--6--6--6--6--6--6--|--------------------------|--------------------------|--------------------------|--7--7--7--7--7--7--7--7--|--7--7--7--7--7--7--7--7--|--4--4--4--4--4--4--4--4--
|--------------------------|--------------------------|--------------------------||--------------------------|--------------------------|--------------------------||--------------------------|--------------------------|--------------------------||--6--6--6--6--6--6--6--6--|--9--9--9--9--9--9--9--9--|--9--9--9--9--9--9--9--9--||--------------------------|--------------------------|--------------------------||--4--4--4--4--4--4--4--4--|--7--7--7--7--7--7--7--7--|--7--7--7--7--7--7--7--7--|
|--------------------------|--------------------------|--------------------------||--------------------------|--------------------------|--------------------------||--------------------------|--------------------------|--------------------------||--6--6--6--6--6--6--6--6--|--6--6--6--6--6--6--6--6--|--4--4--4--4--4--4--4--4--||--------------------------|--------------------------|--------------------------||--4--4--4--4--4--4--4--4--|--4--4--4--4--4--4--4--4--|--2--2--2--2--2--2--2--2--|
|---------------------------|----------------------------------|----------------------------------||---------------------------|----------------------------------|----------------------------------||---------------------------|----------------------------------|----------------------------------||--4--4--4--4--4--4--4--4S--|--14--14--14--14--14--14--14--14--|--14--14--14--14--14--14--14--14--||---------------------------|----------------------------------|----------------------------------||--2--2--2--2--2--2--2--2S--|--12--12--12--12--12--12--12--12--|--12--12--12--12--12--12--12--12--|
Play Chorus 2 2x's Verse 3
|--------------------------|--------------------------||--------------------------|--------------------------||-----4-----------4--------|-----4-----------4--------||--------6-----------6-----|--------6-----------6-----||-----------6-----------6--|-----------6-----------6--||--4-----------4-----------|--4-----------4-----------|
|--------------------------|--------------------------||-----0-----------0--------|--------------------------||--------1-----------1-----|-----4-----------4--------||-----------2-----------2--|--------6-----------6-----||--------------------------|-----------6-----------6--||--0-----------0-----------|--4-----------4-----------|
Play Verse 3 5x's Pre Chorus 3
|--------------------------|--------------------------||-----7-----------7--------|-----5-----------5--------||--------8-----------8-----|--------6-----------6-----||-----------8-----------8--|-----------6-----------6--| 3x's|--6-----------6-----------|--4-----------4-----------||--------------------------|--------------------------|
|--------------------------|--------------------------|--------------------------||--------------------------|--------------------------|--------------------------||-----3-----------3--------|-----3-----------3--------|-----3-----------3--------||--------4-----------4-----|--------4-----------4-----|--------4-----------4-----||-----------4-----------4--|-----------4-----------4--|-----------4-----------4--||--2-----------2-----------|--2-----------2-----------|--2-----------2-----------|
Chorus 3
|--------------------------|--------------------------|--------------------------|--------------------------|--------------------------|--------------------------|--------------------------|--------------------------|--------------------------|--9--9--9--9--9--9--9--9--|--9--9--9--9--9--9--9--9--|--6--6--6--6--6--6--6--6--|--------------------------|--------------------------|--------------------------|--7--7--7--7--7--7--7--7--|--7--7--7--7--7--7--7--7--|--4--4--4--4--4--4--4--4--
|--------------------------|--------------------------|--------------------------||--------------------------|--------------------------|--------------------------||--------------------------|--------------------------|--------------------------||--6--6--6--6--6--6--6--6--|--9--9--9--9--9--9--9--9--|--9--9--9--9--9--9--9--9--||--------------------------|--------------------------|--------------------------||--4--4--4--4--4--4--4--4--|--7--7--7--7--7--7--7--7--|--7--7--7--7--7--7--7--7--|
|--------------------------|--------------------------|--------------------------||--------------------------|--------------------------|--------------------------||--------------------------|--------------------------|--------------------------||--6--6--6--6--6--6--6--6--|--6--6--6--6--6--6--6--6--|--4--4--4--4--4--4--4--4--||--------------------------|--------------------------|--------------------------||--4--4--4--4--4--4--4--4--|--4--4--4--4--4--4--4--4--|--2--2--2--2--2--2--2--2--|
|---------------------------|----------------------------------|----------------------------------||---------------------------|----------------------------------|----------------------------------||---------------------------|----------------------------------|----------------------------------||--4--4--4--4--4--4--4--4S--|--14--14--14--14--14--14--14--14--|--14--14--14--14--14--14--14--14--||---------------------------|----------------------------------|----------------------------------||--2--2--2--2--2--2--2--2S--|--12--12--12--12--12--12--12--12--|--12--12--12--12--12--12--12--12--|
Play Chorus 3 3x's
and end with |-------------------| |-------------------| |-------------------| |--6----------------| |--6----------------| |--4----------------|
Duration Legend --------------- W - whole H - half Q - quarter E - 8th S - 16th T - 32nd X - 64th . - note dotted |-n-| - n-tuplets Tablature Legend ---------------- L - tied note x - dead note g - grace note (n) - ghost note > - accentuded note NH - natural harmonic AH - artificial harmonic TH - tapped harmonic SH - semi harmonic PH - pitch harmonic h - hammer on p - pull off b - bend br - bendRelease pb - preBend pbr - preBendRelease brb - bendReleaseBend \n/ - tremolo bar dip \n - tremolo bar dive -/n - tremolo bar Release up /n\ - tremolo bar inverted dip /n - tremolo bar return -\n - tremolo bar Release down S - shift slide s - legato slide / - slide into from below or out of upwards \ - slide into from above or out of downwards ~ - vibrato W - wide vibrato tr - trill TP - tremolo picking T - tapping S - slap P - pop < - fade in ^ - brush up v - brush down
Tap to rate this tab
 
# A B C D E F G H I J K L M N O P Q R S T U V W X Y Z