Ramones - Blitzkrieg Bop tab

Tablatura de NICO M. (nicokbbl@hotmail.com)

Artista: Ramones
Cancion: Blitzkrieg Bop
Album: The Ramones  (1976) 


1|---------------------------------------------------------|2|---------------------------------------------------------|3|-------------7--7/9--9-9---------------------------------|x34|--7--7-7-7-7-7--7/9--9-9---------------------------------|5|--7--7-7-7-7-5--5/7--7-7---------------------------------|6|--5--5-5-5-5---------------------------------------------|
1|---------------------------------------------------------|2|---------------------------------------------------------|3|----------7-7--------------------------------------------|4|--7-7-7-7-7-7-7-7-7-7------------------------------------|5|--7-7-7-7-5-5-7-7-7-7------------------------------------|6|--5-5-5-5-----5-5-5-5------------------------------------|
1|---------------------------------------------------------|2|---------------------------------------------------------|3|-------------7--7/9--9-9---------------------------------|x34|--7--7-7-7-7-7--7/9--9-9---------------------------------|5|--7--7-7-7-7-5--5/7--7-7---------------------------------|6|--5--5-5-5-5---------------------------------------------|
1|---------------------------------------------------------|2|---------------------------------------------------------|3|----------7-7--------------------------------------------|4|--7-7-7-7-7-7-7-7-7-7------------------------------------|5|--7-7-7-7-5-5-7-7-7-7------------------------------------|6|--5-5-5-5-----5-5-5-5------------------------------------|
Hey ho, let's go Hey ho, let's go
1|---------------------------------------------------------|2|---------------------------------------------------------|3|---------------------------------------------------------|4|--7-7-7-7-7-7-7-7-7-7-7-7-7------------------------------|5|--7-7-7-7-7-7-7-7-7-7-7-7-7------------------------------|6|--5-5-5-5-5-5-5-5-5-5-5-5-5------------------------------|
Hey ho, let's go Hey ho, let's go
1|---------------------------------------------------------|2|---------------------------------------------------------|3|-------------7--7/9--9-9---------------------------------|x34|--7--7-7-7-7-7--7/9--9-9---------------------------------|5|--7--7-7-7-7-5--5/7--7-7---------------------------------|6|--5--5-5-5-5---------------------------------------------|
They're forming in a straight line They're going through a tight wind The kids are losing their minds
1|---------------------------------------------------------|2|---------------------------------------------------------|3|----------7-7--------------------------------------------|4|--7-7-7-7-7-7-7-7-7-7------------------------------------|5|--7-7-7-7-5-5-7-7-7-7------------------------------------|6|--5-5-5-5-----5-5-5-5------------------------------------|
The Blitzkrieg Bop
1|---------------------------------------------------------|2|---------------------------------------------------------|3|-------------7--7/9--9-9---------------------------------|x34|--7--7-7-7-7-7--7/9--9-9---------------------------------|5|--7--7-7-7-7-5--5/7--7-7---------------------------------|6|--5--5-5-5-5---------------------------------------------|
They're piling in the back seat They're generating steam heat Pulsating to the back beat
1|---------------------------------------------------------|2|---------------------------------------------------------|3|----------7-7--------------------------------------------|4|--7-7-7-7-7-7-7-7-7-7------------------------------------|5|--7-7-7-7-5-5-7-7-7-7------------------------------------|6|--5-5-5-5-----5-5-5-5------------------------------------|
The Blitzkrieg Bop
1|---------------------------------------------------------|2|---------------------------------------------------------|3|------------------------------------------------7-7------|4|--9-9-9-9-9-9-9-9-9-9-9-9-7-7-7-7-7-7-7-7-7-7-7-7-7-7-7--|5|--9-9-9-9-9-9-9-9-9-9-9-9-7-7-7-7-7-7-7-7-7-7-7-5-5-7-7--|6|--7-7-7-7-7-7-7-7-7-7-7-7-5-5-5-5-5-5-5-5-5-5-5-----5-5--|
Hey ho, let's go Shoot'em in the back now
1|--------------------------------------------------------------------------|2|--------------------------------------------------------------------------|3|------------------------------------------------------------7-7--7/9--9-9-|4|--9-9-9-9-9-9-9-9-9-9-9-9-7-7-7-7-7-7-7-7-7-7-7-9-9-9-9-9-9-7-7--7/9--9-9-|5|--9-9-9-9-9-9-9-9-9-9-9-9-7-7-7-7-7-7-7-7-7-7-7-9-9-9-9-9-9-5-5--5/7--7-7-|6|--7-7-7-7-7-7-7-7-7-7-7-7-5-5-5-5-5-5-5-5-5-5-5-7-7-7-7-7-7---------------|
What they want, I don't know They're all reved up and ready to go
1|---------------------------------------------------------|2|---------------------------------------------------------|3|-------------7--7/9--9-9---------------------------------|x34|--7--7-7-7-7-7--7/9--9-9---------------------------------|5|--7--7-7-7-7-5--5/7--7-7---------------------------------|6|--5--5-5-5-5---------------------------------------------|
They're forming in a straight line They're going through a tight wind The kids are losing their minds
1|---------------------------------------------------------|2|---------------------------------------------------------|3|----------7-7--------------------------------------------|4|--7-7-7-7-7-7-7-7-7-7------------------------------------|5|--7-7-7-7-5-5-7-7-7-7------------------------------------|6|--5-5-5-5-----5-5-5-5------------------------------------|
The Blitzkrieg Bop
1|---------------------------------------------------------|2|---------------------------------------------------------|3|-------------7--7/9--9-9---------------------------------|x34|--7--7-7-7-7-7--7/9--9-9---------------------------------|5|--7--7-7-7-7-5--5/7--7-7---------------------------------|6|--5--5-5-5-5---------------------------------------------|
They're piling in the back seat They're generating steam heat Pulsating to the back beat
1|---------------------------------------------------------|2|---------------------------------------------------------|3|----------7-7--------------------------------------------|4|--7-7-7-7-7-7-7-7-7-7------------------------------------|5|--7-7-7-7-5-5-7-7-7-7------------------------------------|6|--5-5-5-5-----5-5-5-5------------------------------------|
The Blitzkrieg Bop
1|---------------------------------------------------------|2|---------------------------------------------------------|3|------------------------------------------------7-7------|4|--9-9-9-9-9-9-9-9-9-9-9-9-7-7-7-7-7-7-7-7-7-7-7-7-7-7-7--|5|--9-9-9-9-9-9-9-9-9-9-9-9-7-7-7-7-7-7-7-7-7-7-7-5-5-7-7--|6|--7-7-7-7-7-7-7-7-7-7-7-7-5-5-5-5-5-5-5-5-5-5-5-----5-5--|
Hey ho, let's go Shoot'em in the back now
1|--------------------------------------------------------------------------|2|--------------------------------------------------------------------------|3|------------------------------------------------------------7-7--7/9--9-9-|4|--9-9-9-9-9-9-9-9-9-9-9-9-7-7-7-7-7-7-7-7-7-7-7-9-9-9-9-9-9-7-7--7/9--9-9-|5|--9-9-9-9-9-9-9-9-9-9-9-9-7-7-7-7-7-7-7-7-7-7-7-9-9-9-9-9-9-5-5--5/7--7-7-|6|--7-7-7-7-7-7-7-7-7-7-7-7-5-5-5-5-5-5-5-5-5-5-5-7-7-7-7-7-7---------------|
What they want, I don't know They're all reved up and ready to go
1|---------------------------------------------------------|2|---------------------------------------------------------|3|-------------7--7/9--9-9---------------------------------|x34|--7--7-7-7-7-7--7/9--9-9---------------------------------|5|--7--7-7-7-7-5--5/7--7-7---------------------------------|6|--5--5-5-5-5---------------------------------------------|
They're forming in a straight line They're going through a tight wind The kids are losing their minds
1|---------------------------------------------------------|2|---------------------------------------------------------|3|----------7-7--------------------------------------------|4|--7-7-7-7-7-7-7-7-7-7------------------------------------|5|--7-7-7-7-5-5-7-7-7-7------------------------------------|6|--5-5-5-5-----5-5-5-5------------------------------------|
The Blitzkrieg Bop
1|---------------------------------------------------------|2|---------------------------------------------------------|3|-------------7--7/9--9-9---------------------------------|x34|--7--7-7-7-7-7--7/9--9-9---------------------------------|5|--7--7-7-7-7-5--5/7--7-7---------------------------------|6|--5--5-5-5-5---------------------------------------------|
They're piling in the back seat They're generating steam heat Pulsating to the back beat
1|---------------------------------------------------------|2|---------------------------------------------------------|3|----------7-7--------------------------------------------|4|--7-7-7-7-7-7-7-7-7-7------------------------------------|5|--7-7-7-7-5-5-7-7-7-7------------------------------------|6|--5-5-5-5-----5-5-5-5------------------------------------|
The Blitzkrieg Bop Hey ho, let's go Hey ho, let's go
Tap to rate this tab
 
# A B C D E F G H I J K L M N O P Q R S T U V W X Y Z