Rancid - Dead Bodies tab


E||-------|------|------|-------||------||-------------------------------|B||-------|------|------|-------||------||-------------------------------|G||*------|------|------|------*||------||*--7--7-7----------------------|D||*------|------|------|------*||------||*--7--7-7-7--7-7-8--8-8-5--5-5-|A||-------|------|------|-------||------||---5--5-5-7--7-7-8--8-8-5--5-5-|E||-------|------|------|-------||------||----------5--5-5-6--6-6-3--3-3-|
------------------------------|------------------------------|------------------------------|------------------------------|--7--7-7----------------------|--7--7-7----------------------|--7--7-7-7--7-7-8--8-8-5--5-5-|--7--7-7-7--7-7-8--8-8-5--5-5-|--5--5-5-7--7-7-8--8-8-5--5-5-|--5--5-5-7--7-7-8--8-8-5--5-5-|---------5--5-5-6--6-6-3--3-3-|---------5--5-5-6--6-6-3--3-3-|
-------------------------------||-----------------------------|-------------------------------||-----------------------------|--7--7-7----------------------*||*--7--7-7--7-7--7--7-7--7-7--|--7--7-7-7--7-7-8--8-8-5--5-5-*||*--7--7-7--7-7--7--7-7--7-7--|--5--5-5-7--7-7-8--8-8-5--5-5--||---5--5-5--5-5--5--5-5--5-5--|---------5--5-5-6--6-6-3--3-3--||-----------------------------|
----------------------------|----------------------------|----------------------------|----------------------------|----------------------------|----------------------------|--7--7-7--7-7--7--7-7--7-7--|--8--8-8--8-8--5--5-5--5-5--|--7--7-7--7-7--7--7-7--7-7--|--8--8-8--8-8--5--5-5--5-5--|--5--5-5--5-5--5--5-5--5-5--|--6--6-6--6-6--3--3-3--3-3--|
-----------------------------||-------------------------------|-----------------------------||-------------------------------|--7--7-7--7-7--7--7-7--7-7--*||*--7--7-7----------------------|--7--7-7--7-7--7--7-7--7-7--*||*--7--7-7-7--7-7-8--8-8-5--5-5-|--5--5-5--5-5--5--5-5--5-5---||---5--5-5-7--7-7-8--8-8-5--5-5-|-----------------------------||----------5--5-5-6--6-6-3--3-3-|
------------------------------|------------------------------|------------------------------|------------------------------|--7--7-7----------------------|--7--7-7----------------------|--7--7-7-7--7-7-8--8-8-5--5-5-|--7--7-7-7--7-7-8--8-8-5--5-5-|--5--5-5-7--7-7-8--8-8-5--5-5-|--5--5-5-7--7-7-8--8-8-5--5-5-|---------5--5-5-6--6-6-3--3-3-|---------5--5-5-6--6-6-3--3-3-|
-------------------------------||-----------------------------|-------------------------------||-----------------------------|--7--7-7----------------------*||*--7--7-7--7-7--7--7-7--7-7--|--7--7-7-7--7-7-8--8-8-5--5-5-*||*--7--7-7--7-7--7--7-7--7-7--|--5--5-5-7--7-7-8--8-8-5--5-5--||---5--5-5--5-5--5--5-5--5-5--|---------5--5-5-6--6-6-3--3-3--||-----------------------------|
----------------------------|----------------------------|----------------------------|----------------------------|----------------------------|----------------------------|--7--7-7--7-7--7--7-7--7-7--|--8--8-8--8-8--5--5-5--5-5--|--7--7-7--7-7--7--7-7--7-7--|--8--8-8--8-8--5--5-5--5-5--|--5--5-5--5-5--5--5-5--5-5--|--6--6-6--6-6--3--3-3--3-3--|
-----------------------------||-----------------------------|-----------------------------||-----------------------------|--7--7-7--7-7--7--7-7--7-7--*||*----------------------------|--7--7-7--7-7--7--7-7--7-7--*||*--8--8-8--8-8--5--5-5--5-5--|--5--5-5--5-5--5--5-5--5-5---||---8--8-8--8-8--5--5-5--5-5--|-----------------------------||---6--6-6--6-6--3--3-3--3-3--|
3x ----------------------------||------------------------||----------------------------||------------------------||--7--7-7--7-7--7---9---10--*||--7--7-7--7-7--7--------||--7--7-7--7-7--7---9---10--*||--7--7-7--7-7--7--------||--5--5-5--5-5--5---7---8----||--5--5-5--5-5--5--------||----------------------------||------------------------||
Tap to rate this tab
 
# A B C D E F G H I J K L M N O P Q R S T U V W X Y Z