Ray Parker Jr - Ghostbusters tab version 1

Ghostbusters
Ray Parker Jr.
1984
Tabbed by Nick White

Tuning: Standard (EADGBE)
b = bend
b 1/4 = bend quarter step
s = slide
su = slide up
sd = slide down
x = mute strum

Intro

Guitar 1

-------------------------------------------------------------------|-------------------------------------------------------------------|---------------7-8-7-8-7-8-7-8-7-8-7-8-7-8-7-8-7-8-7-8-7-8-7-8-7-8-|-------------------------------------------------------------------|---2s14sd----------------------------------------------------------|-------------------------------------------------------------------|
Bass
-----------------------------------------------7----------------|-----------------------------------------------------8----------|----------------------10-----9-----8-----7----------------------|---------------7------------------------------------------------|
Verse Guitar 1
----------------------------------------------------|----------------------------------------------------|---4-4-x-x-x-x-6---9--4-4-x-x-x-x-6-6--9------------|---4-4-x-x-x-x-7---9--4-4-x-x-x-x-7-7--9------------|---2-2-x-x-x-x-7---7--2-2-x-x-x-x-7-7--7------------|---------------5------------------5-5---------------|
Guitar 2
----------------------------------------------------|----------------------------------------------------|---------8----6-------------------------------------|----9--9---9-------7-----9-9-9-9----7--9------------|----------------------------------------------------|----------------------------------------------------|
----------------------------------------------------|----------------------------------------------------|---------8----6-------------------------------------|----9--9---9-------7-----9-9-9-9---7-9b11b9---------|----------------------------------------------------|----------------------------------------------------|
Bass
----------------------------------------------------|----------4-7-7------------------4-7-7--------------|------5-6----------7---------5-6--------7-----------|--7-7--------------------7-7------------------------|
Chorus Guitar 1
----------------------------------------------------|----------------------------------------------------|----------------------------------------------------|---9---------7---------5----------2-----------------|---9---------7---------5----------2-----------------|---7---------5---------3----------0-----------------|
Guitar 2
----------------------------------------------------|----------------------------------------------------|----------------------------------------------------|---7b1/4---7b1/4---7b1/4---7b1/4---7b1/4------------|---------9-------9-------9-------9-------9-7-8-9----|----------------------------------------------------|
Bass
----------------------------------------------------|----------------------------------------------------|----------------------------------------------------|---7--------5-5-5-5-5--3----------0-0-0-0-0---------|
Bridge 1
Guitar 2-------------------------------------------|-------------------------------------------|-------------------------------------------|----9-7--------7-9---9-9-------------------|----9-7--------7-9---9-9-------------------|----7s5--------5-7---7-7-------------------|
Bass
---------------------------------------------|---------------------------------------------|---------------------------------------------|----7-5--------5-7---7-7---------------------|
Bridge 2 Guitar 2
---------------------------------------------------|---------------------------------------------------|---------------su17-15-----------------------------|------------------------17-------------------------|---------------------------------------------------|---------------------------------------------------|
Bass
---------------------------------------------------|---------------------------------------------------|---------------------------------------------------|---2--2--2--2--2--2--2--2--2--2--5--5--------------|
Tap to rate this tab
 
# A B C D E F G H I J K L M N O P Q R S T U V W X Y Z