Red Hot Chili Peppers - This Is The Place tab

Drop tuning to D-A-D-G-B-e

P.M; palm mute     h; hammer on

Repeat 4x Repeat 3x rhy.Fig1 end of fig 1|------------|-----12-------------------------------------------------------||------------|-----13-------------------------------------------------------||------------|-----12-------------------------------------------------------||------------|-----12-------------------------------------------------------||------------|-----12-------------------------------------------------------||------------|-0-0----0-0-0-0-0-0-0-0-0-0-0-0-0-0-0-0-0-0-0-0-0-0-0-0-0-0-0-| P.M.|---| |-----------------------------------------------------|
rhy. Fig 2 end of Fig 2|------12-------------------------|------12----------------12----12-------||------13-------------------------|------13----------------13----13-------||------12-------------------------|------12----------------12----12-------||------12-------------------------|------12----------------12----12-------||------12-------------------------|------12----------------12----12-------||--0-0---0-0-0-0-0-0-0-0-0-0-0----|--0-0----0-0-0-0-0-0-0-----------------| PM|---| |-------------------------------| |-------------|
riff A|---------------12------------------------------15------12-------------||-----------13-----------13-----------------13----------------13-------||-------14-----------------------14-----14-----------------------------||---12--------------12-------12------12-------------12-----12----------||---12--------------12-------12------12-------------12-----12----------||----------------------------------------------------------------------|
|------------12------------------|------------------------------------||---------13---------13----------|---15-----13-15-15-13-15--13--------||------14------------------------|---12-----12-12-12-12-12--12-h-14---||--12------------12------12--0---|------------------------------------||--12------------12------12------|------------------------------------||--------------------------------|------------------------------------|
|------------12--------------------||---------13--------13-------------||------14-------------------14-----||--12-----------12------12---------||--12-----------12------12---------||----------------------------------|
|-------------15------12-------------|----------12---------------------||----------13-----------------13-----|-------13------------------------||-------14---------------------------|----14-----------13--------------||---12------------12------12---------|-12-----------12------12--12-----||---12------------12------12---------|-12-----------12------12--12-----||------------------------------------|---------------------------------|
end of riff A|-------------------------||--15---13-15-15-13-15-13-||--12---12-12-12-12-12-12-|only play first time|-------------------------|dont play second time|-------------------------||-------------------------|
INTERLUDEGtr.1 with rhy.Fig1 riff B ] only play frist time dont play second time [end of riff B|----------8--------|-----------------|----------------|--------------||--/10--------8-----|--------10-------|-------8--------|--------------||-------------------|---10-------9----|---7------------|-----------7--||-------------------|-----------------|-----------10---|--7-----------||-------------------|-----------------|----------------|-------10-----||-------------------|-----------------|----------------|--------------|arr. for Guitar go to top and play over
with dist. riff C end of riff C|----------------------------||----------------------------||----------------------------||--5--5------5--5------5-----||---------3---------3-----3--||----------------------------|
riff D|------------------------------|--------------------------------||------------------------------|--------------------------------||----------------14------------|--------14----------------------||--12--14----12--------12--14--|----12---------12---14---12-----||------------------------------|--------------------------------||------------------------------|--------------------------------|
|------------------------------|---------------------------||------------------------------|---------------------------||------------------14----------|---------------------------||--12---14----12--------12---14|---12---10---10-h-12-------||------------------------------|----------------------12---||------------------------------|---------------------------|
|------------------------------------------------------------||------------------------------------------------------------||----------------14--------------------14--------------------||--12--14----12-------12--14-(14)--12------12--14--12--------||------------------------------------------------------------||------------------------------------------------------------|
end of riff D|---------------------------|-----------------------||---------------------------|-----------------------||----------------14---------|-----------------------||--12---14---12-----12--14--|--12--10---10-h-12-----||---------------------------|-------------------12--||---------------------------|-----------------------|
RHY. fig 3|--1---1--1----1-1--x--|-0---0--0---0--0--x--||--1---1--1----1-1--x--|-1---1--1---1--1--x--||--2---2--2----2-2--x--|-0---0--0---0--0--x--||--3---3--3----3-3--x--|-2---2--2---2--2--x--||--3---3--3----3-3--x--|-3---3--3---3--3--x--||--1---1--1----1-1--x--|------------------x--|
after this play fig 3; 2X end of Fig 3 |-------3-----3-3-3--|--3----3--3----3--3----3--||--3--3-3-----3-3-3--|--3----3--3----3--3----3--||--2--2-2-----2-2-2--|--2----2--2----2--2----2--||--0--0-0-----0-0-0--|--0----0--0----0--0----0--||--0--0-0-----0-0-0--|--0----0--0----0--0----0--||--------------------|--------------------------|
|--1---1--1----1-1--x--|-0---0--0---0--0--x--||--1---1--1----1-1--x--|-1---1--1---1--1--x--||--2---2--2----2-2--x--|-0---0--0---0--0--x--||--3---3--3----3-3--x--|-2---2--2---2--2--x--||--3---3--3----3-3--x--|-3---3--3---3--3--x--||--1---1--1----1-1--x--|------------------x--|
|-------3-----3-3-3--|--3-----3------3------3--||--3--3-3-----3-3-3--|--3-----3------3------3--||--2--2-2-----2-2-2--|--2-----2------2------2--||--0--0-0-----0-0-0--|--0-----0------0------0--||--0--0-0-----0-0-0--|--0-----0------0------0--||--------------------|-------------------------|
|--------------------|------------------|----------------|-----------------||--------------------|------------------|----------------|-----------------||--------------------|------------------|----------------|-----------------||--------------------|------------------|----------------|-----------------||--------------------|------------------|----------------|-----------------||--------------------|------------------|----------------|-----------------|
with riff B|------12-------------------------|------12----------------12----12-------||------13-------------------------|------13----------------13----13-------||------12-------------------------|------12----------------12----12-------||------12-------------------------|------12----------------12----12-------||------12-------------------------|------12----------------12----12-------||--0-0---0-0-0-0-0-0-0-0-0-0-0----|--0-0----0-0-0-0-0-0-0-----------------| PM|---| |-------------------------------| |-------------|
|---------------12------------------------------15------12-------------||-----------13-----------13-----------------13----------------13-------||-------14-----------------------14-----14-----------------------------||---12--------------12-------12------12-------------12-----12----------||---12--------------12-------12------12-------------12-----12----------||----------------------------------------------------------------------|
|------------12------------------|------------------------------------||---------13---------13----------|---15-----13-15-15-13-15--13--------||------14------------------------|---12-----12-12-12-12-12--12-h-14---||--12------------12------12--0---|------------------------------------||--12------------12------12------|------------------------------------||--------------------------------|------------------------------------|
|------------12--------------------||---------13--------13-------------||------14-------------------14-----||--12-----------12------12---------||--12-----------12------12---------||----------------------------------|
|-------------15------12-------------|----------12---------------------||----------13-----------------13-----|-------13------------------------||-------14---------------------------|----14-----------13--------------||---12------------12------12---------|-12-----------12------12--12-----||---12------------12------12---------|-12-----------12------12--12-----||------------------------------------|---------------------------------|
|-------------------------||--15---13-15-15-13-15-13-||--12---12-12-12-12-12-12-||-------------------------||-------------------------||-------------------------|
|----------------------------||----------------------------||----------------------------||--5--5------5--5------5-----||---------3---------3-----3--||----------------------------|
|------------------------------|--------------------------------||------------------------------|--------------------------------||----------------14------------|--------14----------------------||--12--14----12--------12--14--|----12---------12---14---12-----||------------------------------|--------------------------------||------------------------------|--------------------------------|
|------------------------------|---------------------------||------------------------------|---------------------------||------------------14----------|---------------------------||--12---14----12--------12---14|---12---10---10-h-12-------||------------------------------|----------------------12---||------------------------------|---------------------------|
|------------------------------------------------------------||------------------------------------------------------------||----------------14--------------------14--------------------||--12--14----12-------12--14-(14)--12------12--14--12--------||------------------------------------------------------------||------------------------------------------------------------|
|---------------------------|-----------------------||---------------------------|-----------------------||----------------14---------|-----------------------||--12---14---12-----12--14--|--12--10---10-h-12-----||---------------------------|-------------------12--||---------------------------|-----------------------|
|---------------------------------------------------12---||---------------------------------------------------12---||---------------------------------------------------12---||----12----10-----10-h-12-------10------------------12---||---------------------------------------------------12---||--------------------------------------0----0----0-------| P.M|-----------|
this is my first tab
Tap to rate this tab
 
# A B C D E F G H I J K L M N O P Q R S T U V W X Y Z