Red Hot Chili Peppers - Power Of Equality tab

This version is 100% correct so enjoy!
                        


                        #####################
                         ~Power Of Equality~
                        #####################




Tune down 1/2 step

p= pull off
h= hammer on
v= vibrato
b= bend
c= prebend
r= release bend

Guitar 1 (clean)

Rhy. Fig. 1:0-0000-0-00-0-0000-0-0000-0-00-0-0000:8-5555-8-55-8-5555-8-5555-8-55-8-5555:7------7----7------7------7----7-----:-------------------------------------:-------------------------------------:-------------------------------------
::0-0000-0-00-0-0000-0-00000-----------:8-5555-8-55-8-5555-8-55555-----------:7------7----7------7-----------------:-------------------------------------:--------------------------7----------:-------------------------------------
Fill 1::0-00000000000000:8-55555555555555:7---------------:----------------:----------------:----------------
Fill 2::0-0000-0-00000000:8-5555-8-55555555:7------7---------:-----------------:-----------------:-----------------
Pre-Chorus::6-6-6-6-6-6-6-6:6-6-6-6-6-6-6-6:6-6-6-6-6-6-6-6:5-5-5-5-5-5-5-5:6-6-6-6-6-6-6-6:---------------
Chorus::-----------------------------------------------------:-------------------------------x10-10-12-12-12p10----:-------------------------------x10-10-12-12-12p10----:-1212-12-1111-11-1010-----------------------------12v:----------------------12-11-10-----------------------:-----------------------------------------------------
::--------------------------------------------------:-------------------------------x10-10-12-12-12p10b:-------------------------------x10-10-12-12-12p10b:-1212-12-1111-11-1010-----------------------------:----------------------12-11-10--------------------:--------------------------------------------------
::-----------------------------------------------------:-------------------------------x10-10-12-12-12p10----:-------------------------------x10-10-12-12-12p10----:-1212-12-1111-11-1010-----------------------------12v:----------------------12-11-10-----------------------:-----------------------------------------------------
::---------------------------------:---------------------------------:---------------------------------:-1212-12-1111-11-1010------------:----------------------12-11-10---:---------------------------------
Interlude 1 (Guitar 1) 8x:-------1414-14-1313-13-6:---------------1313-13-6:-------1111-11-1313-13-6:13p11v------------------:------------------------:------------------------
Interlude 1 (Guitar 2 with wah-wah):---------------------------------------------:------------------------------------14b-14b--:11-----------14p13----11-----11--------------:--13---11h13--------13--11h13--13------------:---------------------------------------------:---------------------------------------------
::1413b--11-------------------------------------:------14---1113-------------------------------:----------------1311---11--13p1114p13--1413p11:---------------------13-----------------------:----------------------------------------------:----------------------------------------------
::14-11--1111--1111--11---:-----14----14----14--14b:------------------------:------------------------:------------------------:------------------------
Interlude 2 (Guitar 2 with wah-wah):--------------------------------------------:-----15b--15c--15c-15c--15r-15b-15b-15b-----:--------------------------------------------:--------------------------------------------:10------------------------------------------:--------------------------------------------
Outro (Guitar 1):--------------00000000000000000000000-0-0-0-0-0-0-0-0-0-:--------------88888888888888888888888s101010101010101010:--------------77777777777777777777777s9-9-9-9-9-9-9-9-9-:--------------------------------------------------------:----5h7-------------------------------------------------:--------------------------------------------------------
::00000000000000000000000000000000:88888877777777777777777777777777:77777766666666666666666666666666:--------------------------------:--------------------------------:--------------------------------
::00000000000000000000000-0-0-0-0-0-0-0-0-0-
:88888888888888888888888s101010101010101010:77777777777777777777777s9-9-9-9-9-9-9-9-9-:------------------------------------------:------------------------------------------:------------------------------------------
::000000000000000000000000--------:888888777777777777777777--------:777777666666666666666666--------:--------------------------------:-------------------------10-9-8s:--------------------------------
Song Order: Rhy Fig 1- 1x Rhy Fig 1- 3/4x Rhy. Fill - 1x Rhy. Fig 1- 1x Pre-Chorus- 1x Chorus - 1x Rhy. Fig 1 -3/4 Rhy. Fill 2 - 1x Rhy. Fig 1 - 1x Pre Chorus- 1x Interlude 1- 1x (guitars 1 and 2) Rhy. Fig 1 -3/4x Rhy. Fill 1 - 1x Rhy. Fig 1- 1x Pre-Chorus- 1x Chorus - 1x Interlude 2- 1x (w/ guitar 1, interlude 1) Rhy. Fig 1 - 3/4x Rhy. Fill 1- 1x Rhy. Fig 1- 3/4x Rhy. Fig 1- 1/4x Rhy. Fig 1 - 1x Outro - 1x And there you go, im pretty sure its 100%, i might have messed up on the song order, if you see any corrections pleASE EMAIL ME OR CORRECT ME!! HAVE FUN!!
Tap to rate this tab
 
# A B C D E F G H I J K L M N O P Q R S T U V W X Y Z