Red Hot Chili Peppers - Freaky Styley tab

Title: Freaky Styley
Artist: Red Hot Chili Peppers
Album: Freaky Styley

Improvisation

verse:|

                                                             
--------------------------|--------------------------|---------5-----5----------|x--x--x--5-----5----------|x--x--x--5-----5----------|--------------------------|
----------------------------------------------------|----------------------------------------------------|--------x--x--5-----7-----x--x--x--5-----5-----x----|--5h-7--x--x--5-----7-----x--x--x--5-----5-----x----|--5-----x--x--5--------------------5-----5-----x----|----------------------------------------------------|
----------------------------------------------------|----------------------------------------------------|--------x--x--5-----7-----x--x--x--5-----5-----x----|--5h-7--x--x--5-----7-----x--x--x--5-----5-----x----|--5-----x--x--5--------------------5-----5-----x----|----------------------------------------------------|
----------------------------------------------------|----------------------------------------------------|--------x--x--5-----7-----x--x--x--5-----5-----x----|--5h-7--x--x--5-----7-----x--x--x--5-----5-----x----|--5-----x--x--5--------------------5-----5-----x----|----------------------------------------------------|
----------------------------------------------------|----------------------------------------------------|--------x--x--5-----7-----x--x--x--5-----5-----x----|--5h-7--x--x--5-----7-----x--x--x--5-----5-----x----|--5-----x--x--5--------------------5-----5-----x----|----------------------------------------------------|
----------------------------------------------------|----------------------------------------------------|--------x--x--5-----7-----x--x--x--5-----5-----x----|--5h-7--x--x--5-----7-----x--x--x--5-----5-----x----|--5-----x--x--5--------------------5-----5-----x----|----------------------------------------------------|
----------------------------------------------------|----------------------------------------------------|--------x--x--5-----x--x--x--x--x--5-----5-----x----|--5h-7--x--x--5-----x--x--x--x--x--5-----5-----x----|--5-----x--x--5-----x--x--x--x--x--5-----5-----x----|----------------------------------------------------|
----------------------------------------------------|----------------------------------------------------|--------x--x--5-----x>-x--x--x--x--5-----5-----x----|--5h-7--x--x--5-----x>-x>-x>-x>-x>-5-----5-----x----|--5-----x--x--5-----x>-x--x--x--x--5-----5-----x----|----------------------------------------------------|
----------------------------------------------------|----------------------------------------------------|--------x--x--5-----x--x--x--x--x--5-----5-----x----|--5h-7--x--x--5-----x--x--x--x--x--5-----5-----x----|--5-----x--x--5-----x--x--x--x--x--5-----5-----x----|----------------------------------------------------|----------------------------------------------------|----------------------------------------------------|--7--x-----7--x-----7--x-----7--x-----7-----7-------|-----x--------x--------x--------x-------------------|----------------------------------------------------|----------------------------------------------------|
----------------------------------------------------|----------------------------------------------------|--x--x--x--x--7-----x--7-----x-----7-----7-----x----|--x--x--x--x--------x--------x----------------------|----------------------------------------------------|----------------------------------------------------|
----------------------------------------------------|----------------------------------------------------|--x-----7--7-----7-----7--------7--7-----7----------|--x-----7--7-----7-----7--------7M-7-----7----------|----------------------------------------------------|----------------------------------------------------|
----------------------------------------------------|----------------------------------------------------|--x--7-----7--7-----7-----7-----7--7--7--7--7--7----|--x--7-----7--7-----7-----7-----7--7--7--7--7--7----|----------------------------------------------------|----------------------------------------------------|
--10b---------10b---10b-----|--10b---10b---9b------------|--9b---|-------|----------------------------|----------------------------|-------|-------|----------------------------|----------------------------|-------|-------|----------------------------|----------------------------|-------|-------|----------------------------|----------------------------|-------|-------|----------------------------|----------------------------|-------|-------|
----------------------------------------------------|----------------------------------------------------|--------x--x--5-----x>-x--x--x--x--5-----5-----x----|--x--x--x--x--5-----x>-x>-x>-x>-x>-5-----5-----x----|--x--x--x--x--------x>-x--x--x--x--5g----5g----x----|----------------------------------------------------|
----------------------------------------------------|----------------------------------------------------|--------x--x--5-----x>-x--x--x--x--5-----5-----x----|--x--x--x--x--5-----x>-x>-x>-x>-x>-5-----5-----x----|--x--x--x--x--------x>-x--x--x--x--5g----5g----x----|----------------------------------------------------|
----------------------------------------------------|----------------------------------------------------|--------x--x--5-----x>-x--x--x--x--5-----5-----x----|--x--x--x--x--5-----x>-x>-x>-x>-x>-5-----5-----x----|--x--x--x--x--------x>-x--x--x--x--5g----5g----x----|----------------------------------------------------|
----------------------------------------------------|----------------------------------------------------|--------x--x--5-----x>-x--x--x--x--5-----5-----x----|--x--x--x--x--5-----x>-x>-x>-x>-x>-5-----5-----x----|--x--x--x--x--------x>-x--x--x--x--5g----5g----x----|----------------------------------------------------|
----------------------------------------------------|----------------------------------------------------|--------x--x--5-----x>-x--x--x--x--5-----5-----x----|--x--x--x--x--5-----x>-x>-x>-x>-x>-5-----5-----x----|--x--x--x--x--------x>-x--x--x--x--5g----5g----x----|----------------------------------------------------|
Tap to rate this tab
 
# A B C D E F G H I J K L M N O P Q R S T U V W X Y Z