Rene Aubry - Salento tab

I take no credit for the tablature, just spreading the tab..
Tablature for 3 guitars:)

1 2 3 4|--7---7---------|----------------|--7---7---------|----------------||8---------------|7-10--10--------|8---------------|7-10--10--------||----9-----9---9-|----9-----8---8-|----9-----9---9-|----9-----8---8-||--------10--9---|--------9---9---|--------10--9---|--------9---9---||----------------|----------------|----------------|----------------||----------------|----------------|----------------|----------------|
|
|----------------|----------------|----------------|----------------||----------------|----------------|----------------|----------------||----------------|----------------|----------------|----------------||----------------|----------------|----------------|----------------||----------------|----------------|----------------|----------------||----------------|----------------|----------------|----------------|
|
|----------------|----------------|----------------|----------------||----------------|----------------|----------------|----------------||----------------|----------------|----------------|----------------||----------------|----------------|----------------|----------------||----------------|----------------|----------------|----------------||----------------|----------------|----------------|----------------|
5 6 7 8|----------------|--------------|----------------|--------------||--8---8---------|--7---7-8-----|--8---8---------|--7---7-8-----||9---9-----9---9-|7-----------9-|9---9-----9---9-|7-----------9-||--------10--9---|----9-----9---|--------10--9---|----9-----9---||----------------|--------------|----------------|--------------||----------------|--------------|----------------|--------------|
|
|----------------|--------------|----------------|--------------||--8---8---------|--------------|--8---8---------|--------------||9---9-----9---9-|----------9---|9---9-----9---9-|----------9---||--------10--9---|--7---7-9-----|--------10--9---|--7---7-9-----||----------------|9---10------7-|----------------|9---10------7-||----------------|--------------|----------------|--------------|
|
|----------------|--------------|----------------|--------------||----------------|--------------|----------------|--------------||----------------|--------------|----------------|--------------||----------------|--------------|----------------|--------------||----------------|--------------|----------------|--------------||----------------|--------------|----------------|--------------|
9 10 11 12|--7---7---------|----------------|--7---7---------|----------------||8---------------|7-10--10--------|8---------------|7-10--10--------||----9-----9---9-|----9-----8---8-|----9-----9---9-|----9-----8---8-||--------10--9---|--------9---9---|--------10--9---|--------9---9---||----------------|----------------|----------------|----------------||----------------|----------------|----------------|----------------|
|
|----------------|----------------|----------------|----------------||----------------|----------------|----------------|----------------||----------------|--7-9-7---------|----------------|--7-9-7-----9-8-||------9-7---9---|--------7-9-----|------9-7---9---|----------9-----||10--10----10----|------------9---|10--10----10----|--------9-------||----------------|----------------|----------------|----------------|
|
|----------------|----------------|----------------|----------------||----------------|----------------|----------------|----------------||----------------|----------------|----------------|----------------||----------------|----------------|----------------|----------------||----------------|----------------|----------------|----------------||----------------|----------------|----------------|----------------|
13 14 15 16|----------------|--------------|----------------|--------------||--8---8---------|--7---7-8-----|--8---8---------|--7---7-8-----||9---9-----9---9-|7-----------9-|9---9-----9---9-|7-----------9-||--------10--9---|----9-----9---|--------10--9---|----9-----9---||----------------|--------------|----------------|--------------||----------------|--------------|----------------|--------------|
|
|----------------|--------------|----------------|--------------||----------------|--------------|----------------|--------------||----------------|--------------|----------------|--------------||----9-----------|--------------|----9-----------|--------------||7-10--7---7-10--|--------7-----|7-10--7---7-10--|--------7-----||--------8-----8-|7-----7-------|--------8-----8-|7-----7-------|
|
|--101210--------|-101210-------|--101210--------|-101210-------||--------1012----|-------1012---|--------1012----|-------1012---||9---------------|--------------|9---------------|--------------||----------------|--------------|----------------|--------------||----------------|--------------|----------------|--------------||----------------|--------------|----------------|--------------|
17 18|7-------7---------------7-------|--------7---------------7-||----8---------------7-------7---|----8---------------7-----||------------9---8---------------|9-----------9---8---------||--------------------------------|--------------------------||--------------------------------|--------------------------||--------------------------------|--------------------------|
|
|--------------------------------|--------------------------||--1---1---1---1---1---1---1---1-|--1---1---1---1---1---1---||4---4---4---4---4---4---4---4---|4---4---4---4---4---4---4-||--------------------------------|--------------------------||--------------------------------|--------------------------||--------------------------------|--------------------------|
|
|--------------------------------|--------------------------||12--------------12------12------|12------12------12------12||--------------------------------|--------------------------||--------------------------------|--------------------------||--------------------------------|--------------------------||--------------------------------|--------------------------|
19 20|7-------7---------------7-------|--------7---------------7-||----8---------------7-------7---|----8---------------7-----||------------9---8---------------|9-----------9---8---------||--------------------------------|--------------------------||--------------------------------|--------------------------||--------------------------------|--------------------------|
|
|--------------------------------|--------------------------||--1---1---1---1---1---1---1---1-|--1---1---1---1---1---1---||4---4---4---4---4---4---4---4---|4---4---4---4---4---4---4-||--------------------------------|--------------------------||--------------------------------|--------------------------||--------------------------------|--------------------------|
|
|--------------------------------|--------------------------||12--------------12------12------|12------12------12------12||--------------------------------|--------------------------||--------------------------------|--------------------------||--------------------------------|--------------------------||--------------------------------|--------------------------|
21 22 23 24|----------------|--------------|----------------|--------------||--8---8---------|--7---7-8-----|--8---8---------|--7---7-8-----||9---9-----9---9-|7-----------9-|9---9-----9---9-|7-----------9-||--------10--9---|----9-----9---|--------10--9---|----9-----9---||----------------|--------------|----------------|--------------||----------------|--------------|----------------|--------------|
|
|----------------|--------------|----------------|--------------||----------------|--------------|----------------|--------------||----------------|--------------|----------------|--------------||----9-----------|--------------|----9-----------|--------------||7-10--7---7-10--|--------7-----|7-10--7---7-10--|--------7-----||--------8-----8-|7-----7-------|--------8-----8-|7-----7-------|
|
|--101210--------|-101210-------|--101210--------|-101210-------||--------1012----|-------1012---|--------1012----|-------1012---||9---------------|--------------|9---------------|--------------||----------------|--------------|----------------|--------------||----------------|--------------|----------------|--------------||----------------|--------------|----------------|--------------|
25 26|----7-------7-------------------|----------------------------||8-------------------------------|7---10------10--------------||--------9-----------9-------9---|--------9-----------8-----8-||----------------10------9-------|----------------9-------9---||--------------------------------|----------------------------||--------------------------------|----------------------------|
|
|--------------------------------|----------------------------||--------------------------------|----------------------------||--------------------------------|----------------------------||--------------------------------|----------------------------||7-9-7-9-7-9-7-9-7-9-7-9-7-9-7-9-|9-109-109-109-109-109-109---||--------------------------------|----------------------------|
|
|--------------------------------|----------------------------||--------------------------------|----------------------------||--------------------------------|----------------------------||--------------------------------|----------------------------||--------------------------------|----------------------------||--------------------------------|----------------------------|
27 28|----7-------7-------------------|----------------------------||8-------------------------------|7---10------10--------------||--------9-----------9-------9---|--------9-----------8-----8-||----------------10------9-------|----------------9-------9---||--------------------------------|----------------------------||--------------------------------|----------------------------|
|
|--------------------------------|----------------------------||--------------------------------|----------------------------||--------------------------------|----------------------------||--------------------------------|----------------------------||7-9-7-9-7-9-7-9-7-9-7-9-7-9-7-9-|9-109-109-109-109-109-109---||--------------------------------|----------------------------|
|
|--------------------------------|----------------------------||--------------------------------|----------------------------||--------------------------------|----------------------------||--------------------------------|----------------------------||--------------------------------|----------------------------||--------------------------------|----------------------------|
29 30|--------------------------------|--------------------------||----8-------8-----------8-------|----7-------7---8---------||9-------9-----------9-------9---|7-----------------------9-||----------------10--------------|--------9-----------9-----||--------------------------------|--------------------------||--------------------------------|--------------------------|
|
|--------------------------------|--------------------------||--------------------------------|--------------------------||--------------------------------|--------------------------||--------------------------------|--------------------------||7-9-7-9-7-9-7-9---7---7---7---7-|--9---9---9---9-9-109-107-||----------------8---8---8---8---|10--10--10--10------------|
|
|--------------------------------|--------------------------||----8-------8-----------8-------|--------------------------||9-------9-----------9-------9---|--------------------------||----------------10--------------|7---9-------9-------------||--------------------------------|--------10------9-109-107-||--------------------------------|--------------------------|
31 32|--------------------------------|--------------------------||----8-------8-----------8-------|----7-------7---8---------||9-------9-----------9-------9---|7-----------------------9-||----------------10--------------|--------9-----------9-----||--------------------------------|--------------------------||--------------------------------|--------------------------|
|
|--------------------------------|--------------------------||--------------------------------|--------------------------||--------------------------------|--------------------------||--------------------------------|--------------------------||7-9-7-9-7-9-7-9---7---7---7---7-|--9---9---9---9-9-109-107-||----------------8---8---8---8---|10--10--10--10------------|
|
|--------------------------------|--------------------------||----8-------8-----------8-------|--------------------------||9-------9-----------9-------9---|--------------------------||----------------10--------------|7---9-------9-------------||--------------------------------|--------10------9-109-107-||--------------------------------|--------------------------|
33 34|7-------7---------------7-------|--------7---------------7-||----8---------------7-------7---|----8---------------7-----||------------9---8---------------|9-----------9---8---------||--------------------------------|--------------------------||--------------------------------|--------------------------||--------------------------------|--------------------------|
|
|--------------------------------|--------------------------||--1---1---1---1---1---1---1---1-|--1---1---1---1---1---1---||4---4---4---4---4---4---4---4---|4---4---4---4---4---4---4-||--------------------------------|--------------------------||--------------------------------|--------------------------||--------------------------------|--------------------------|
|
|--------------------------------|--------------------------||12--------------12------12------|12------12------12------12||--------------------------------|--------------------------||--------------------------------|--------------------------||--------------------------------|--------------------------||--------------------------------|--------------------------|
35 36|7-------7---------------7-------|--------7---------------7-||----8---------------7-------7---|----8---------------7-----||------------9---8---------------|9-----------9---8---------||--------------------------------|--------------------------||--------------------------------|--------------------------||--------------------------------|--------------------------|
|
|--------------------------------|--------------------------||--1---1---1---1---1---1---1---1-|--1---1---1---1---1---1---||4---4---4---4---4---4---4---4---|4---4---4---4---4---4---4-||--------------------------------|--------------------------||--------------------------------|--------------------------||--------------------------------|--------------------------|
|
|--------------------------------|--------------------------||12--------------12------12------|12------12------12------12||--------------------------------|--------------------------||--------------------------------|--------------------------||--------------------------------|--------------------------||--------------------------------|--------------------------|
37 38 39|----3-------3-------3-------|----2-------2-------2-----|----0-------0-------0-------||--5---5---5---5---5---5-----|--3---3---3---3---3---3---|--1---1---1---1---1---1-----||4-------4-------4-------4---|2-------2-------2-------2-|2-------2-------2-------2---||----------------------------|--------------------------|----------------------------||----------------------------|--------------------------|----------------------------||----------------------------|--------------------------|----------------------------|
|
|----------------------------|--------------------------|----------------------------||----------------------------|--------------------------|----------------------------||----------------------------|--------------------------|----------------------------||----9-------9-------9-----9-|----7-------7-------7-----|----5-------5-------5-----5-||10------10------10------10--|9-------9-------9-------9-|7-------7-------7-------7---||----------------------------|--------------------------|----------------------------|
|
|----------------------------|--------------------------|----------------------------||----------------------------|--------------------------|----------------------------||----------------------------|--------------------------|----------------------------||----------------------------|--------------------------|----------------------------||----------------------------|--------------------------|----------------------------||----------------------------|--------------------------|----------------------------|
40 41 42|----0-------0-------0-----|----3-------3-------3-------|----2-------2-------2-----||--0---0---0---0---0---0---|--5---5---5---5---5---5-----|--3---3---3---3---3---3---||0-------0-------0-------0-|4-------4-------4-------4---|2-------2-------2-------2-||--------------------------|----------------------------|--------------------------||--------------------------|----------------------------|--------------------------||--------------------------|----------------------------|--------------------------|
|
|--------------------------|----------------------------|--------------------------||--------------------------|----------------------------|--------------------------||--------------------------|----------------------------|--------------------------||----5-------5-------5-----|----9-------9-------9-----9-|----7-------7-------7-----||7-------7-------7-------7-|10------10------10------10--|9-------9-------9-------9-||--------------------------|----------------------------|--------------------------|
|
|--------------------------|--------10--------------10--|--------10-------------10-||--------------------------|----12------12------12----12|----10------10------10--10||--------------------------|----------------------------|--------------------------||--------------------------|----------------------------|--------------------------||--------------------------|----------------------------|--------------------------||--------------------------|----------------------------|--------------------------|
43 44 45|----0-------0-------0-------|----0-------0-------0-----|----7-------7-------------------||--1---1---1---1---1---1-----|--0---0---0---0---0---0---|8-------------------------------||2-------2-------2-------2---|0-------0-------0-------0-|--------9-----------9-------9---||----------------------------|--------------------------|----------------10------9-------||----------------------------|--------------------------|--------------------------------||----------------------------|--------------------------|--------------------------------|
|
|----------------------------|--------------------------|--------------------------------||----------------------------|--------------------------|--------------------------------||----------------------------|--------------------------|--------------------------------||----5-------5-------5-----5-|----5-------5-------5-----|--------------------------------||7-------7-------7-------7---|7-------7-------7-------7-|7-9-7-9-7-9-7-9-7-9-7-9-7-9-7-9-||----------------------------|--------------------------|--------------------------------|
|
|--------8---------------8---|--------7---------------7-|--------------------------------||----10------10------10----10|----8-------8-------8-----|--------------------------------||----------------------------|--------------------------|--------------------------------||----------------------------|--------------------------|--------------------------------||----------------------------|--------------------------|--------------------------------||----------------------------|--------------------------|--------------------------------|
46 47|----------------------------|----7-------7-------------------||7---10------10--------------|8-------------------------------||--------9-----------8-----8-|--------9-----------9-------9---||----------------9-------9---|----------------10------9-------||----------------------------|--------------------------------||----------------------------|--------------------------------|
|
|----------------------------|--------------------------------||----------------------------|--------------------------------||----------------------------|--------------------------------||----------------------------|--------------------------------||9-109-109-109-109-109-109---|7-9-7-9-7-9-7-9-7-9-7-9-7-9-7-9-||----------------------------|--------------------------------|
|
|----------------------------|--------------------------------||----------------------------|--------------------------------||----------------------------|--------------------------------||----------------------------|--------------------------------||----------------------------|--------------------------------||----------------------------|--------------------------------|
48 49|----------------------------|--------------------------------||7---10------10--------------|----8-------8-----------8-------||--------9-----------8-----8-|9-------9-----------9-------9---||----------------9-------9---|----------------10--------------||----------------------------|--------------------------------||----------------------------|--------------------------------|
|
|----------------------------|--------------------------------||----------------------------|--------------------------------||----------------------------|--------------------------------||----------------------------|--------------------------------||9-109-109-109-109-109-109---|7-9-7-9-7-9-7-9---7---7---7---7-||----------------------------|----------------8---8---8---8---|
|
|----------------------------|--------------------------------||----------------------------|----8-------8-----------8-------||----------------------------|9-------9-----------9-------9---||----------------------------|----------------10--------------||----------------------------|--------------------------------||----------------------------|--------------------------------|
50 51|--------------------------|--------------------------------||----7-------7---8---------|----8-------8-----------8-------||7-----------------------9-|9-------9-----------9-------9---||--------9-----------9-----|----------------10--------------||--------------------------|--------------------------------||--------------------------|--------------------------------|
|
|--------------------------|--------------------------------||--------------------------|--------------------------------||--------------------------|--------------------------------||--------------------------|--------------------------------||--9---9---9---9-9-109-107-|7-9-7-9-7-9-7-9---7---7---7---7-||10--10--10--10------------|----------------8---8---8---8---|
|
|--------------------------|--------------------------------||--------------------------|----8-------8-----------8-------||--------------------------|9-------9-----------9-------9---||7---9-------9-------------|----------------10--------------||--------10------9-109-107-|--------------------------------||--------------------------|--------------------------------|
52 53|--------------------------|7-------7---------------7-------||----7-------7---8---------|----8---------------7-------7---||7-----------------------9-|------------9---8---------------||--------9-----------9-----|--------------------------------||--------------------------|--------------------------------||--------------------------|--------------------------------|
|
|--------------------------|--------------------------------||--------------------------|--1---1---1---1---1---1---1---1-||--------------------------|4---4---4---4---4---4---4---4---||--------------------------|--------------------------------||--9---9---9---9-9-109-107/|--------------------------------||10--10--10--10------------|--------------------------------|
|
|--------------------------|--------------------------------||--------------------------|12--------------12------12------||--------------------------|--------------------------------||7---9-------9-------------|--------------------------------||--------10------9-109-107-|--------------------------------||--------------------------|--------------------------------|
54 55|--------7---------------7-|7-------7---------------7-------||----8---------------7-----|----8---------------7-------7---||9-----------9---8---------|------------9---8---------------||--------------------------|--------------------------------||--------------------------|--------------------------------||--------------------------|--------------------------------|
|
|--------------------------|--------------------------------||--1---1---1---1---1---1---|--1---1---1---1---1---1---1---1-||4---4---4---4---4---4---4-|4---4---4---4---4---4---4---4---||--------------------------|--------------------------------||--------------------------|--------------------------------||--------------------------|--------------------------------|
|
|--------------------------|--------------------------------||12------12------12------12|12--------------12------12------||--------------------------|--------------------------------||--------------------------|--------------------------------||--------------------------|--------------------------------||--------------------------|--------------------------------|
56|--------7---------------7-||----8---------------7-----||9-----------9---8---------||--------------------------||--------------------------||--------------------------|
|
|--------------------------||--1---1---1---1---1---1---||4---4---4---4---4---4---4-||--------------------------||--------------------------||--------------------------|
|
|--------------------------||12------12------12------12||--------------------------||--------------------------||--------------------------||--------------------------|
57 58|----8-------8-------8-----8-|--------------------------------||10--------------10----------|----8-------8-------8-------8---||--------9---------------9---|9---------------9---------------||----------------------------|--------9---------------9-------||----------------------------|--------------------------------||----------------------------|--------------------------------|
|
|----------------------------|--------------------------------||----------------------------|--------------------------------||--5---5---5---5---5---5-----|--------------------------------||7---7---7---7---7---7---7---|--5---5---5---5---5---5---5---5-||----------------------------|7---7---7---7---7---7---7---7---||----------------------------|--------------------------------|
|
|----------------------------|--------------------------------||----------------------------|--------------------------------||----------------------------|--------------------------------||----------------------------|--------------------------------||----------------------------|--------------------------------||----------------------------|--------------------------------|
59 60|----8-------8-------8-----8-|--------------------------------||10--------------10----------|----8-------8-------8-------8---||--------9---------------9---|9---------------9---------------||----------------------------|--------9---------------9-------||----------------------------|--------------------------------||----------------------------|--------------------------------|
|
|----------------------------|--------------------------------||----------------------------|--------------------------------||--5---5---5---5---5---5-----|--------------------------------||7---7---7---7---7---7---7---|--5---5---5---5---5---5---5---5-||----------------------------|7---7---7---7---7---7---7---7---||----------------------------|--------------------------------|
|
|----------------------------|--------------------------------||----------------------------|0---0-1-0---0-1-0---0-1-0---0-1-||----------------------------|--2-------2-------2-------2-----||----------------------------|--------------------------------||----------------------------|--------------------------------||----------------------------|--------------------------------|
61 62|----8-------8-------8-----8-|--------------------------------||10--------------10----------|----8-------8-------8-------8---||--------9---------------9---|9---------------9---------------||----------------------------|--------9---------------9-------||----------------------------|--------------------------------||----------------------------|--------------------------------|
|
|----------------------------|--------------------------------||----------------------------|--------------------------------||--5---5---5---5---5---5-----|--------------------------------||7---7---7---7---7---7---7---|--5---5---5---5---5---5---5---5-||----------------------------|7---7---7---7---7---7---7---7---||----------------------------|--------------------------------|
|
|----------------------------|--------------------------------||----------------------------|--------------------------------||2---------------------------|--------------------------------||----------------------------|--------------------------------||----------------------------|--------------------------------||----------------------------|--------------------------------|
63 64|----8-------8-------8-----8-|--------------------------------||10--------------10----------|----8-------8-------8-------8---||--------9---------------9---|9---------------9---------------||----------------------------|--------9---------------9-------||----------------------------|--------------------------------||----------------------------|--------------------------------|
|
|----------------------------|--------------------------------||----------------------------|--------------------------------||--5---5---5---5---5---5-----|--------------------------------||7---7---7---7---7---7---7---|--5---5---5---5---5---5---5---5-||----------------------------|7---7---7---7---7---7---7---7---||----------------------------|--------------------------------|
|
|----------------------------|--------------------------------||----------------------------|12--121312--121312--121312--1213||----------------------------|--14------14------14------14----||----------------------------|--------------------------------||----------------------------|--------------------------------||----------------------------|--------------------------------|
65 66|--------------------------------|--------------------------------||----8-----8---------8-------8---|----7-----7---------7-------7---||--9-----9---------9-------9-----|--7-----7---------7-------7-----||9-----9-----9-9---------9-----9-|7-----7-----7-7---------7-----7-||--------------------------------|--------------------------------||--------------------------------|--------------------------------|
|
|--------------------------------|--------------------------------||12----12----12101210------------|10----10----108-108-------------||----------------------12------11|----------------------11------9-||--------------------------------|--------------------------------||--------------------------------|--------------------------------||--------------------------------|--------------------------------|
|
|--------------------------------|--------------------------------||12------------------------------|--------------------------------||--------------------------------|--------------------------------||9------9-----9---7--------------|7------7-----7------------------||------------------------10----9-|-----------------10-----9-----7-||--------------------------------|--------------------------------|
67 68|----5-----5---------5-------5---|--------5-----------5-------------------5-----------5---------||--5-----5---------5-------5-----|----5-----------5-------------------5-----------5-------------||5-----5-----5-5---------5-----5-|5-----------5-----------5-------7-----------7-----------7-----||--------------------------------|--------------------------------------------------------------||--------------------------------|--------------------------------------------------------------||--------------------------------|--------------------------------------------------------------|
|
|8-----8-----8-7-8-7-----------7-|8-8-8-8-8-8-8-8-8-8-8-8-8-8-8-8-101010101010101010101010101010||----------------------10--------|--------------------------------------------------------------||--------------------------------|--------------------------------------------------------------||--------------------------------|--------------------------------------------------------------||--------------------------------|--------------------------------------------------------------||--------------------------------|--------------------------------------------------------------|
|
|--------------------------------|--------------------------------------------------------------||--------------------------------|--------------------------------------------------------------||--------------------------------|--------------------------------7-----------------------------||10----10----10----9---7-------9-|10------------------------------------------------------------||--------------------------------|--------------------------------------------------------------||--------------------------------|--------------------------------------------------------------|
69 70|--------------------------------|--------------------------------||----8-----8---------8-------8---|----8-----8---------8-------8---||--9-----9---------9-------9-----|--9-----9---------9-------9-----||9-----9-----9-9---------9-----9-|9-----9-----9-9---------9-----9-||--------------------------------|--------------------------------||--------------------------------|--------------------------------|
|
|--------------------------------|--------------------------------||8-----8-----8-7-8-7-----------7-|8-----8-----8-7-8-7-----------7-||----------------------9---------|----------------------9---------||--------------------------------|--------------------------------||--------------------------------|--------------------------------||--------------------------------|--------------------------------|
|
|--------------------------------|--------------------------------||--------------------------------|--------------------------------||--------------------------------|--------------------------------||9-----9-----9-----7-----------7-|9-----9-----9-----7-----------7-||-----------------------10-------|-----------------------10-------||--------------------------------|--------------------------------|
71|----------------------------------------------------------------||--------7-----------7-------------------7-----------7-----------||----7-----------7-------------------7-----------7---------------||7-----------7-----------7-------7-----------7-----------7-------||----------------------------------------------------------------||----------------------------------------------------------------|
|
|----------------------------------------------------------------||----------------------------------------------------------------||7-7-7-7-7-7-7-7-7-7-7-7-7-7-7-7---------------------------------||--------------------------------9-9-9-9-9-9-9-9-9-9-9-9-9-9-9-9-||----------------------------------------------------------------||----------------------------------------------------------------|
|
|----------------------------------------------------------------||----------------------------------------------------------------||----------------------------------------------------------------||9---------------------------------------------------------------||----------------------------------------------------------------||----------------------------------------------------------------|
72|----------------------------------------------------------------||--------5-----------5-------------------5-----------5-----------||----5-----------5-------------------5-----------5---------------||7-----------7-----------7-------7-----------7-----------7-------||----------------------------------------------------------------||----------------------------------------------------------------|
|
|----------------------------------------------------------------||----------------------------------------------------------------||9-9-9-9-9-9-9-9-9-9-9-9-9-9-9-9-9-9-9-9-9-9-9-9-9-9-9-9-9-9-9-9-||----------------------------------------------------------------||----------------------------------------------------------------||----------------------------------------------------------------|
|
|----------------------------------------------------------------||----------------------------------------------------------------||----------------------------------------------------------------||9---------------------------------------------------------------||----------------------------------------------------------------||----------------------------------------------------------------|
73 74|--------------------------------|--------------------------------||----8-----8---------8-------8---|----8-----8---------8-------8---||--9-----9---------9-------9-----|--9-----9---------9-------9-----||9-----9-----9-9---------9-----9-|9-----9-----9-9---------9-----9-||--------------------------------|--------------------------------||--------------------------------|--------------------------------|
|
|--------------------------------|--------------------------------||8-----8-----8-7-8-7-----------7-|8-----8-----8-7-8-7-----------7-||----------------------9---------|----------------------9---------||--------------------------------|--------------------------------||--------------------------------|--------------------------------||--------------------------------|--------------------------------|
|
|--------------------------------|--------------------------------||--------------------------------|--------------------------------||--------------------------------|--------------------------------||9-----9-----9-----7-----------7-|9-----9-----9-----7-----------7-||-----------------------10-------|-----------------------10-------||--------------------------------|--------------------------------|
75|----------------------------------------------------------------||--------7-----------7-------------------7-----------7-----------||----7-----------7-------------------7-----------7---------------||7-----------7-----------7-------7-----------7-----------7-------||----------------------------------------------------------------||----------------------------------------------------------------|
|
|----------------------------------------------------------------||----------------------------------------------------------------||7-7-7-7-7-7-7-7-7-7-7-7-7-7-7-7---------------------------------||--------------------------------9-9-9-9-9-9-9-9-9-9-9-9-9-9-9-9-||----------------------------------------------------------------||----------------------------------------------------------------|
|
|----------------------------------------------------------------||----------------------------------------------------------------||----------------------------------------------------------------||9---------------------------------------------------------------||----------------------------------------------------------------||----------------------------------------------------------------|
76|----------------------------------------------------------------||--------5-----------5-------------------5-----------5-----------||----5-----------5-------------------5-----------5---------------||7-----------7-----------7-------7-----------7-----------7-------||----------------------------------------------------------------||----------------------------------------------------------------|
| |----------------------------------------------------------------|
|1010101010101010101010101010101010101010101010101010101010101010||----------------------------------------------------------------||----------------------------------------------------------------||----------------------------------------------------------------||----------------------------------------------------------------|
|
|----------------------------------------------------------------||10--------------------------------------------------------------||----------------------------------------------------------------||----------------------------------------------------------------||----------------------------------------------------------------||----------------------------------------------------------------|
77 78 79|----12----12------7-----7---|----5-----5-------3-----3---|----------------------||--13----13------8-----8-----|--5-----5-------5-----5-----|----------------------||14----14----149-----9-----9-|5-----5-----5-4-----4-----4-|----------------------||----------------------------|----------------------------|----------------------||----------------------------|----------------------------|----------------------||----------------------------|----------------------------|----------------------|
|
|5---------------------------|----------------------------|----------------------||6---------------------------|----------------------------|----------------------||7---------------------------|----------------------------|----------------------||7---------------------------|----------------------------|----------------------||5---------------------------|----------------------------|----------------------||5---------------------------|----------------------------|----------------------|
|
|----------------------------|----------------------------|----------------------||----------------------------|----------------------------|12--------------------||----9-----9-----------------|----9-----9-----------------|----------------------||--10----10--------9-----9---|--10----10--------9-----9---|----------------------||12----12----12--10----10----|12----12----12--10----10----|----------------------||--------------12----12----12|--------------12----12----12|----------------------|
Tap to rate this tab
 
# A B C D E F G H I J K L M N O P Q R S T U V W X Y Z