Resilient – Endless tab

Endless... by Resilient (TAS)
Drop C Tuning: C, G, C, F, A, D

Absolutely amazing song!
Haven't put in strums cause it takes too long.
It's not hard to work out though.


soft intro:

-----13----13----12----12----12---12---10---10---10------|---------------------------------------------------------|-------10----10----10----10----9----9----9----9----9-----|---------12----12----12----12---12---12---12---12--------|---------------------------------------------------------|--12-------------------------------------------------12--|
on the last time hold out a 9th fret on the 'F' (G) string. ----- ----- --9-- ----- ----- ----- dist:
-----------13----12----8------------------|------------------------------------------|------------------------------------------|--12----0---------------------------------|--12----0---------------------------------|--12----0---------------------------------|
with vocals: "Sometimes I feel like Ive been running in circles for too long"
-----------13----12----8--------18----17----13-------------|-----------------------------------------------------------|--------------------------------------------------7777777--|--12----0-----------------------------------------7777777--|--12----0-----------------------------------------5555555--|--12----0--------------------------------------------------| .. ..
"Everyday I tell myself this isn’t where I’m supposed to be"
-----------13----12----8--------18----17----13-----|---------------------------------------------------|---------------------------------------------------|--12----0------------------------------------------|--12----0------------------------------------------|--12----0------------------------------------------|
"I’m counting down the days of"
--17----15----12-----------------|---------------------------------|------------------------7777777--|------------------------7777777--|------------------------5555555--|---------------------------------| .. ..
"endless disappointment I force on myself"
----------------------------------|-----6-----------6--------8-------|-----9-----------10-------10------|--0-------------------------------|--0-------------------------------|--0-------------------------------|
-------------------------------------|-------6-----------6--------8--------|-------9-----------10-------10-------|--3--0-------------------------------|--3--0-------------------------------|--3--0-------------------------------|
"Endless expectations that I will never meet"
-------------------------------------|-------6-----------6--------8--------|-------9-----------10-------10-------|--3--0-------------------------------|--3--0-------------------------------|--3--0-------------------------------|
"If only I could run away for a while"
-------------------------------------|-------6-----------6--------8--------|-------9-----------10-------10-------|--3--0-------------------------------|--3--0-------------------------------|--3--0-------------------------------|
guitar 1:
--------------------------------------|--6-------------6---------8--8--8--8--|--9-------------10------10-10-10-10---|--------------------------------------|--------------------------------------|--------------------------------------|
guitar 2:
--13----12----8--------13----12----15----17----|-----------------------------------------------|-----------------------------------------------|-----------------------------------------------|-----------------------------------------------|-----------------------------------------------|
guitar 1 continues: "I’m still searching for something I thought I would have found by now I’m still learning still dreaming still breathing"
--------------------------------------|--6-------------6---------8--8--8--8--|--9-------------10------10-10-10-10---|--------------------------------------|--------------------------------------|--------------------------------------|
Haven't tabbed the rest out, but I will soon. Enjoy. Rate / Comment / Keep listening to this band / Check my other hc tabs http://www.myspace.com/resilienthc
Please rate this tab:
x1.0