Rhapsody - Legendary Tales tab

****************************************************************
* RHAPSODY - LEGENDARY TALES (From the album: LEGENDARY TALES) *
****************************************************************
 Music & Words by: Alex Staropoli/Luca Turilli

Transcribed by: Nils-Erik Karlsson 
Email: nils-erik.karlsson@mailbox.swipnet.se 
       nisse@uds.se 

My own note: Throughout the hole song, there are sections with several instruments making up 
for the complete picture of the song. I've tried to arrange it all for just one guitar. This 
means that this is not a 100transcription of the guitar parts of this song. 

Normal tuning!!


Harpsichord, arranged for guitar:-1-||---1---1-0---0-1---3-5---5-|-5---5------6-5-------10-|-10--10-10-8--7-8-----||---3-3---2-2---3---5-6-----|-6-6---8--5---6----------|-6------6-------5-----||*--2-----2-----2-----------|-7-----6------7----------|-7------7-------5-----||*--0-----------0---2-3-----|-------5-----------------|-0------0-------------||---------0-----------------|-5-----4------5----------|----------------------||---------------------------|-------------------------|----------------5--
---7-5---|-6----6-6-5-3-5------------1--||---------------------------------------------|-3------------7----8-7--------||-repeat-4-times------------------------------|-3------3-----7--------------*||---------------------------------------------|--------2--------------------*||-song-entering-the-3rd-time------------------|--------------5---------------||---------------------------------------------|-3----------------------------||------------------------------------
-1---3-0---0-1---3-5---5-|-5---5------6-5------10-|-10--10-10--8-7-8----7-5-|--3-3---2-2---3---5-6-----|-6-6---8--5---6---------|-6------6-------5--------|--2-----2-----2-----------|-7-----6------7---------|-7------7-------5--------|--0-----------0---2-3-----|-------5----------------|-0------0----------------|--------0-----------------|-5-----4------5---------|-------------------------|--------------------------|------------------------|----------------5--------|-
-6----6-6-5-3-2---2-5---5-10-----3------3-----3-3---7-7---10-----3------------2-----7-----11------------2-----0--------------------------------------------------3------------------------------
flute ,cello and harpsichord arranged for guitar:----------|-----------------------------|-5-------10--8---------------------------|-------3-5-|-6-------5-3-1---------------|---------------11-10-8-----10------------|-----------|---------------3-3-----2-----|------------------------10---------9-----|-----------|-----------------------------|-----------------------------------------|-----------|-5---------------0-----4-0-4-|-----5----8----------------7--8-7--------|-----------|-----0-1-------------0-------|-5---------------------------------5-----|-
-|-------------2----------------------------|--|-------2-3-5-----------------5---3---2----|--|-4---4------------------------------------|--|-4--------------------2--4-----------2----|--|-2-----------2-----5-----------------4----|--|------------------------------------------|-
-7---7--------------------------------------------|-------------------------|----------7---8----10--8-7----7----8-7-5-----------|-----------7-------------|--7-----------7-------------9------------7-6-------|-------7-9-7-------------|------------------------------4--------------------|--9----------------------|------------------------------4--------------------|--7----------------------|--7-----------3------------------------------------|-----------7-------------|-
----------------------------|---------------------------------2-------------|--8------10-8---7h8----------|-5-----7-5--3--------------2---2-2-------------|--9-------------7------------|----------------6-4--3---3---3---3-------------|-----------------------------|-5----------4--------4-4---------4-------------|--7--------------------------|-7----------5--------4-----------4-------------|----------------7------------|---------------------------------2-------------|-
electric guitars:-||-----------------------|----------------------|----------------------|------||-----------------------|----------------------|----------------------|------||*----------------------|----------------------|----------------------|------||*----------4-----2-----|----------------------|----------4-----2-----|------||--5--4--5--2-------5---|-4--2--4--4-----2-----|-5--4--5--2--------5--|------||--7--------------------|-5--------5--------6--|-7--------------------|-----
----------------------||----------------------------------------------------------------------------||---------------------------------------------------------------------------*||-repeat-2-times----------------------------------------3--6--3--4----------*||-------------------------------------------------------4--------4-----------||----------------------------------------------------------------2-----------||------------------------------------------------------
-|---------------------------------------|----------------------------------|--|---------------------5-----------------|----------------------------------|--|----2--/4------7--7-----6--7--6--4-----|-/4----4--4-----------------------|--|-5-------------------------------------|-------------7--5--4h5p4----------|--|---------------------------------------|----------------------------------|--|---------------------------------------|----------------------------------|-
-|----------------------------------------------|-5b----5b--5--3--2-h3-p2------|---------------------5-----5br-3----------3-5-|------------------------------|-----2--/4-----7--7-----6---------4-3-4-6-----|------------------------------|-/5-------------------------------------------|------------------------------|----------------------------------------------|------------------------------|----------------------------------------------|-----------------------------
Chorus:----|--------------------------------------------------|--------------------------|--------------------------------------------------|--------------------------|--------------------------------------------------|--------------------------|-2---------4----5----------4---------------2------|-2------------4----5----2-|-0---------2----3----------2-----------2---0----2-|-0------------2----3----0-|---------------------------------------0--------0-|----------------------
acoustic:--------------------------------------|-5------3--1----1------0-------------|---------------------------------------|--------------------------3----------|---------------------------------------|-2--------------2--------------------|----------4----------2-----------------|-------------------------------------|----------2----------0-----------------|----------------0--------------------|---------------------------------------|-1-----------------------------------|-
-0------------------------3--5-|-1---------------0--------------------------|----------3--1---3--------------|----------5--3--------------3--1------------|--------------------------------|--------------------------------------------|--------------------------------|--------------------------------------------|-----------------5--------------|-1---------------0--------------------------|--0-----------------------------|--------------------------------------------|-
electric guitar:-5-----------4-----------|--------------------------------------------------|--5---------------5-------|--------------------------------------------------|--4-------------------4---|------------------------------------4-------------|--2-----------------------|-1-----------------3----------------5-------------|--------------------------|-3-----------------5----------------5-------------|--------------------------|------------------------------------3-------------|-
----------------------------------------|-----------------------------------|-----------------------------------------|-----------------------------------|-----------------------------------------|-----------------------------------|--6-------------------5------------------|-6-------------------5-------------|--6-------------------3------------------|-6-------------------3-------------|--4--------------------------------------|-4---------------------------------|-
----------------------------------------|-7b---------------7h8p7--\5--7----------|----------------------------------------|----------------------------------------|----------------------------------------|----------------------------------------|
flute and electric guitar:-||---2---------------0--------2-3----|-3-------2-0----------------|-----------||-----------5-3---------------------|---------------7---------3--|-----------||*------------------0------5-4-5----|----------------------------|-----------||*--------7-5-4---------------------|-------5-4-2----------------|-----------||---5-------------------------------|-3-----------3-5----7----4--|-----------||-----------------------------------|----------------------------|----------
------5-------3-2-----3--------5-7----|-7-------5-3---5------------||-----------------------------------------------|----------------------------||--------------------------------------5-4-2----|---------------------------*||---------------------7-5-4-----5---------------|-------5-4-2---------------*||---------------5-------------------------------|-3-----------3-5------------||-----------------------------------------------|----------------------------||---------
electric guitars:-|------------------------------------------------------|--|--8---7----8--/10--------------8-------------5--------|--|--9---7----9--/-9------7--5----7---5h7p5-4---5--------|--|------------------------------------------------------|--|------------------------------------------------------|--|------------------------------------------------------|-
-|------------------------------------------------------|--|--8---7--/10---8-------7--5----7---5h7p5-3---5--------|--|--9---7--/11---9-------7--5----7---5h7p5-4---6--------|--|------------------------------------------------------|--|------------------------------------------------------|--|------------------------------------------------------|-
-|------------------------------------------------------|--|-7-------5--3-----5-------3--1-----3---5---/-8--7-----|--|-7-------5--4-----5-------4--2-----4---5---/-9--7-----|--|------------------------------------------------------|--|------------------------------------------------------|--|------------------------------------------------------|-
-|------------------------------------------------------|--|-7-------5--3-----5-------1--3-----5---7---5---5------|--|-7-------5--4-----5-------2--4-----5---7---5---4------|--|------------------------------------------------------|--|------------------------------------------------------|--|------------------------------------------------------|-
-|------------------------------------------------------|--|-7-------5--3-----5-------3--1-----3---5---/-8--7-----|--|-7-------5--4-----5-------4--2-----4---5---/-9--7-----|--|------------------------------------------------------|--|------------------------------------------------------|--|------------------------------------------------------|-
-|-----------------------------------------------------------|--|-7-------5--3-----5-------1--3-----5---7---5---3-1---------|--|-7-------5--4-----5-------2--4-----5---7---5---4-2-4-2-0---|--|---------------------------------------------------5-4-2-2-|--|---------------------------------------------------------2-|--|-----------------------------------------------------------|-
flute and electric guitar:-|-2-------0-------0--------2-3----|-3-------2-0---2------------|--|-----------3---------------------|-------------------------3--|--|---------0-------0------5-4-2----|----------------------------|--|-0-----7---4---------------------|-------5-4-2---0------------|--|---------------------------------|-3-----------3------7----4--|--|---------------------------------|----------------------------|-
-|-5-------3-2---3-----5-7---7-----5-3---5-------------|--|-----------------------------------------------------|--|-------------------5-4-2-----------------------------|--|-------7-5-4---4-5-------5---------2-----------------|--|-5-----------7-------------3p2-3-5---3-5----0----0---|--|-----------------------------------------------------|-
-|-2-------0-------0--------2-3----|-3-------2-0---2------------|--|-----------3---------------------|-------------------------3--|--|---------0-------0------5-4-2----|----------------------------|--|-0-----7---4---------------------|-------5-4-2---0------------|--|---------------------------------|-3-----------3------7----4--|--|---------------------------------|----------------------------|-
-|-5-------3-2----3-----5-7---7-----5-3---5---------/10---------|--|------------------------------------5-------------------------|--|------------------------4-7-5-4-5-7---5-7---------------------|--|-------7-5-4----5-4-5-7---------------------------------------|--|-5------------------------------------------------------------|--|--------------------------------------------------------------|-
Chorus:electric guitar:----|--------------------------------------------------|--------------------------|--------------------------------------------------|--------------------------|--------------------------------------------------|--------------------------|-2---------4----5----------4---------------2------|-2------------4----5----2-|-0---------2----3----------2-----------2---0----2-|-0------------2----3----0-|---------------------------------------0--------0-|----------------------
--------------------------------------|---------------------------------------|---------------------------------------|----------4----------2-----------------|----------2----------0-----------------|---------------------------------------|-
acoustic:-|------------8----5------------|-5--------8-12-8----5-----5------------------|--|-10-----10-------------8--6---|------10-------------------------11---10-8---|--|------------------------------|----------------------------7----------------|--|------------------------------|------------------------------7--------------|--|--8--------------5------------|--------------------5------------------------|--|------------------------------|-5-------------------------------6-----------|-
electric guitar:-|-5----------5--------4--------|-------------------------------------------|--|-5-------5--5----------5------|-------------------------------------------|--|-5----------4------------4----|---------------------------------4---------|--|------------2-----------------|-1----------------3--------------5---------|--|------------------------------|-3----------------5--------------5---------|--|-5----------------------------|---------------------------------3---------|-
-|-----------------------------------|--------------------------------------|--|-----------------------------------|--------------------------------------|--|-----------------------------------|--------------------------------------|--|-6----------------5----------------|-6-----------------5------------------|--|-6----------------3----------------|-6-----------------3------------------|--|-4---------------------------------|-4------------------------------------|-
-|-----------------------------------|--------------------------------------|--|------------------8----------------|-7b-----------7h8p7--5--/7------------|--|------------------8----------------|--------------------------------------|--|-6----------------8----------------|--------------------------------------|--|-6----------------6----------------|--------------------------------------|--|-4---------------------------------|--------------------------------------|-
outro (acoustic):-|---------------------------------------------------|-------------------------|-6------8--10---8------6------6--------------------|-8----------------5------|-7--------------6----------9--7-------7----------9-|---------9--10----6------|--------------------------------------7------------|-7-----------------------|---------------------------------------------------|-------------------------|---------------------------------------------------|------------------------
-----------------------------------|-10-------8--------8------------------------10---8---10----------------------|--------------11-------11---10------8----------------7---------------------9-|-7--------------------------7---------10-------------------------------------|---------------8-------------------------------------------------------------|-----------------------------------------------------------------------------|------------------------------------------
-------------------|-12------------------------------9-----10---------------|--------------------|---------11--14----8--------10--------------------------|--7------7------10--|---------------------------------------7----------------|--7-----------------|-------------------7------------------------------------|--------------------|-10-----------------------------------------------------|--------------------|--------------------------------------------------------|-
-|---------------------------------------------------|-------------------------|-6------8--10---8------6------6--------------------|-8----------------5------|-7--------------6----------9--7-------7----------9-|---------9--10----6------|--------------------------------------7------------|-7-----------------------|---------------------------------------------------|-------------------------|---------------------------------------------------|------------------------
-----------------------------------|-10-------8--------8------------------------10---8---10----------------------|--------------11-------11---10------8----------------7--------------------9--|-7--------------------------7---------10-------------------------------------|--------------8--------------------------------------------------------------|-----------------------------------------------------------------------------|------------------------------------------
-------------------|-12------------------------------9-----10---------------|--------------------|---------11--14----8--------10--------------------------|--7------7------10--|---------------------------------------7----------------|--7-----------------|-------------------7------------------------------------|--------------------|-10-----------------------------------------------------|--------------------|--------------------------------------------------------|-
Tap to rate this tab
 
# A B C D E F G H I J K L M N O P Q R S T U V W X Y Z