Rik Emmett - Gladhand tab

  gladhand tab rik emmett

     classical guitar traduit par steve morin


|-----------------------------------|----------------------------||--------------------3-----2--------|--------------0-------------||--------------0h1---4-----4-----4--|-1/2----5-----2-------2-----||--------------0h2---------------3--|-1/2----7-------------1-----||---------------h2-------4----------|------0-----2---------------||-4/12\--------0~~-4---------0h1----|-1/2-------------0p1--------|
|------------------------|---------------------------------------||-------3-------2\-------|-------------(0)0h1p0h1p0h1p0h1p0------||-0h1---4-------4\-----4-|-1/2---5----(2)--------------------8/--||-0h1-----0------------3-|-1/2---7-------------------------------||--h2--------4-----------|-----0---0-----------------------------||-0~~-4------------0h1---|-1/2-----------------------------------|
|-------------2-0------------0-2--0------0-------||---7/9\7---------0------2--------2--------2-----||---7/9\7-----------1------1------0----0-----0---||---------------------------------2--------------||----------------------0----------1--------------||-0-------4--------------------------------------|
|-------------9-------------------------2--------||----9-10-12----9----------------1------0--------||----9------------11p9---------2--------2-----2--||----9-----------------0-----2-----1------1---1--||-2----------------------------------2-----------||-------------9----------2------------------2----|
|----------------2-0-----------0-2-0-----0------||------7/9\7---------0-----2-------2-------2----||-0h1--7/9\7-----------1-----1-----0---0------0-||-0h2------------------------------2------------||--h2--------------------0---------1------------||-0-----------4---------------------------------|
|-----------------9-12p9----4---2--0---7/12------||-2----9-10-11-12-----------4---2--0-------------||-0-------------------------4---2--1-------------||-2---------------------------2----2-------------||-1-----------------------2--------2-------------||-----------------9----------------0-------------|
|-0--5p0-----7---5p0-----0-3p0------5---3p0------||-0------0-----------0---0-----0-----------------||-6------------6---------5------------5----------||-6--------6-------------5--------5--------------||-0----------------------0-----------------------||------------------------------------------------|
|-0-----2p0--------------------------------------||-0---------0---2p0------------------------------||-4-----------4-----2-1h2p1----1---1-2---2-3-4---||-4--------------------------4---0-----0---------||-0----------------------------------------------||---------------------0--------0-----2-----3-4---|
|-0--5p0-----7---5p0-----0--12p0-----11--8\7-----||-0------0-----------0---0-------0---------------||-6------------6---------9---------9-------------||-6--------6-------------10----------------------||-0----------------------10----------------------||------------------------8-----------------------|
|---7-----10---9-----------4/5----8---7h8p7h8p7h8p7h8p7----11/12-||---9-----7----9-------12--4/5----5---7--------------------------||-----7----------10----10------7---------------------------------||-------9--------------------------------------------------------||-9-----------------11-------------------------------------------||------------9---------------------------------------------------|
|-------------2-0------------0-2--0------0-------||---7/9\7---------0------2--------2--------2-----||---7/9\7-----------1------1------0----0-----0---||---------------------------------2--------------||----------------------0----------1--------------||-0-------4--------------------------------------|
|----------------9-------------------------2--------||----9-10-11-12----9----------------1------0--------||----9---------------11p9---------2--------2-----2--||----9--------------------0-----2-----1------1---1--||-2-------------------------------------2-----------||----------------9----------2------------------2----|
|----------------2-0-----------0-2-0-----0------||------7/9\7---------0-----2-------2-------2----||-0h1--7/9\7-----------1-----1-----0---0------0-||-0h2------------------------------2------------||--h2--------------------0---------1------------||-0-----------4---------------------------------|
|-----------------9-11-12p9--------12------11/14---11h14p11--12-||---0--9-10-11-12-----------9---10------8-----------------------||---------------------------------------------------------------||-------------------------------10------8-----------------------||-2---------------------------9---------------------------------||-----------------9-------------------7-------------------------|
|-12--14p12--------12\10---10--12P10----------10\9--8--10P8--------8\7-||-12-------12--12----------10--------10----10-------8-------8---8------||-11-----------11----------10--------------9--------8-----------7------||-11-----------10----------10-----------------------8------------------||-0------------------------10-----------------------8------------------||----------------------------------------8--------------------6--------|
|-6---7/8--9--10/11-----------||-----------------------------||-----------------------------||-----------------------------||-6---7/8--9--10/11-----------||-----------------------------|
|-12--14p12--------12\10---10--12P10--------10\9--8--10P8--------8\7-||-12-------12--12----------10-------10---10-------8-------8---8------||-11-----------11----------10------------9--------8-----------7------||-11-----------10----------10---------------------8------------------||-0------------------------10---------------------8------------------||--------------------------------------8--------------------6--------|
|---7/---7H9P7H9P7---12---9P7H9P7------------------------------------||---7-------------------------------9--------------------------------||---6---------------------------------9---8-6------------------------||---6-----------------------------------------9----6H7P6-------------||--------------------------------------------------------9-6H7-------||-0------------------------------------------------------------0-----|
|-------------14-----------------------------------------------------||-------------12-----------------------------------------------------||----------11--------------------------------------------------------||-------11-----------------------------------------------------------||----11--------------------------------------------------------------||-0------------------------------------------------------------------|
Tap to rate this tab
 
# A B C D E F G H I J K L M N O P Q R S T U V W X Y Z