Roland Dyens - Saudade No 3 tab

Roland Dyens - Saudade No 3

Transcribed by Reiz Evans


Q=70 H=H H.=H 4/4|-----------2p0-----3p0-----2p0---------------------------||---------1-----1-------1-------1---3p1-------------------||-------0---------0-------0-------0-----0---2p0-----------||-----0-----------------------------------0-----0---2p0---||---0---------------------------------------------0-----0-||-0-------------------------------------------------------|
H=H 1/4 <-------------------------|---------------------------------|-------------------------|---------------------------------|-------------------------|---------------------------------|-------------------------|---------------------------------|---0h2p0h2p0h2p0h2p0h2p0-|-2p0h2p0h2p0h2p0h2p0h2p0h2p0h2p0-|-3-0-0-0-0-0-0-0-0-0-0-0-|-0-0-0-0-0-0-0-0-0-0-0-0-0-0-0-0-|
Q=70 H.=H 4/4 6/8------5----(5)--||-5p3-----3p0-------------------------0---4S2---|------9----(9)--||-----0-------0---5p3-----3p0---------7---5S3---|------7----(7)--||-------5-------5-----5-------5-----5-----4S2---|----------------||-----------------------5-------5-0-----0-------|-(0)------------||-----------------------------------------------|-(0)------------||-----------------------------------------------|
Q=40 Q=70 Q=48 11/16 3/8 13/16 < >|-(2)----------------------x--(5)-|-(5)---|-------------------------------||-(3)----------------------x--(9)-|-(9)---|------7h10-9-10-12-13-9-12-10--||-(2)----------------------x--(7)-|-(7)---|----7--------------------------||-----4h6p4p0--------------x--(0)-|-(0)---|-10----------------------------||-------------3p0----------x--(0)-|-(0)---|-------------------------------||-----------------3b4.5p0-(0)-(0)-|-(0)---|-------------------------------|
4/8 15/16|-10-13------------------|----------------------2-1-------||-14----14----14----<12>-|--------------------------2-1---||----------14----13------|----------------0-(0)---------0-||------------------------|----^0-7-9-10-6-----------------||------------------------|-12p11--------------------------||------------------------|----^0-------------1------------|
1/2 3/4|------|---0-1-5-4-7-(7)----||-3----|-0-1-0---1---<7>----||-0----|-1-3-2-------<7>----||------|-3-4-0--------------||------|-4------------------||-0----|--------------------|
Q=70 Q=48 H.=H 11/16 15/16 1/8 4/4|--------------------|---0-1-10-8-12-(12)---|-(12)--------|------||--------------------|-0-1-0----------10----|-(10)--------|------||---------0---1-(1)--|-1-3-2----9-----13----|-(13)--------|------||-------0h==4---(4)--|-3-4-0----------------|-------3p0---|------||---0h3---------(3)--|-4--------------------|-------3p0-3p|=0----||-0-------------(0)--|----------------------|-----------3p|=0----|
H=H 10/8|--------------0----------------0----------------0----||-----------10---10----------10---10----------10---10-||-11h=13p11---------11h13p11---------11h13p11---------||-----------------------------------------------------||-(0)-------------------------------------------------||-(0)-------------------------------------------------|
-------------0----------------0----------------0----------|----------10---10----------10---10----------10------------|-11h13p11---------11h13p11---------11h13p11------11h13p11-|----------------------------------------------------------|----------------------------------------------------------|----------------------------------------------------------|
----0-----------------0----------------0-----------(0)---|-10---10-----------10---10----------10---10-------(10)---|----------11h13p11---------11h13p11---------13----(13)---|-----------------------------------------------12-(12)---|------(0)------------------------------------------------|------(0)------------------------------------------------|
Q=70 4/4 21/16|--(0)--------------------------5S12---|-------9h10p9-------------------------||-(10)-(10)-----------------5----------|----10--------10----0-(0)-------------||-(13)------------------------4--------|-10--------------10-------5S7-(7)-----||-(12)----------------4-6-3------------|--------------------------5S7-(7)-----||--(0)--------------3------------------|--------------------------------------||--(0)--(0)-1b2.5p0--------------------|-------------------------------0------|
11/8|-4-4-4-4-4-4-4-4-4-4-4-4-4-4-4-4-4-4-4-4-4-4-4-4-4-4-4-4-4-4-4-4-4-4-4-4-4-4-||-1-1-1-1-1-1-1-1-1-1-1-1-1-1-1-1-1-1-1-1-1-1-1-1-1-1-1-1-1-1-1-1-1-1-1-1-1-1-||-----------------------------------------------------------------------------||-4-4-4-4-4-4-4-4-4-4-4-4-4-4-4-4-4-4-4-4-4-4-4-4-4-4-4-4-4-4-4-4-4-4-4-4-4-4-||-----------------------------------------------------------------------------||-----------------------------------------------------------------------------|
Q=80 13/8 4/4|--10-8-0-----10-8-0-12-10-0-----------------------|-^5----2h5p3p2p0h2p0------||----------------------------0------9h10p9--(9)----|-^3------------------1----||---8----------8-----10----------------------------|-^2------------------0----||---------0--------------------10----------(10)----|-^0-----------------------||---------6-----------------------9---------(9)----|-^0-----------------------||-----------0--------------------------------------|-^0-----------------------|
Q=90 2/4|-----------|-----------|-----------|-----------||------------------7-||-3---------|-----------|-----------|-----------||o-7p5------0--------||-2---------|-----------|-----------|-----------||------7-------7-----||---------0-|---------0-|---------0-|---------0-||----------------0---||---0-(0)---|---0-(0)---|---0-(0)---|---0-(0)---||o-------0-(0)-------||-0---------|-0---------|-0---------|-0---------||--0-----------------|
|-5-----------|-3-----------|-2-------------|-----------------7-||---7-------7-|---5-------5-|---3-----------|-7p5------0--------||--------7----|--------5----|-----1---(1)---|-----7-------7-----||-----------0-|-----------0-|-------------0-|---------------0---||-----0-(0)---|-----0-(0)---|-------0-(0)---|-------0-(0)-------||-0-----------|-0-----------|-0-------------|-0-----------------|
|-5-----------|-------5--7------10-|-(10)----------|||---7-------0-|-0---6-------8---10-|-(10)---------o|||--------7----|---5-----------7--9-|--(9)----------|||-----------0-|---------------0----|------------0--|||-----0-(0)---|-------0-(0)--------|------0-(0)---o|||-0-----------|-0------------------|---0-----------||
||----------------|------------------|---------------|||o---------------|------------------|---------------|||----------------|-----5-4----------|-5-7-4--5S=2-2-|||--0-2----4--7-6-|-(6)------6--7-14-|---------------|||o-----0-(0)-----|-------0-(0)------|-----0-(0)-----|||--0-------------|--0---------------|-0-------------|
1.|-------------|-----------------|---------------------||-------------|-----------------|---------------------||-(2)---------|-2p1------1------|---------------------||-----------0-|-----4-------2-4-|-(4)-0h2-5--2h=4-7p0-||-----0-(0)---|-------0-(0)-----|---------0-(0)-------||--0----------|-0---------------|--0------------------|
2.|---------------|------------1--||-------1-2-|-(2)-0---0-2-3-||---------------|------------1-o||---1-3-2-3-|-(3)---3-------||---------------|----------0----||-2-0-2---0-|-(0)-----------||-4p0-------0-0-|-(0)----0------||-2---------|---------------||-----2-(2)-----|------0-------o||-----2-2-3-|-(3)-----------||-5---5-(5)-----|--0h1----------||-0---------|---------------|
GtGtr I Gtr IGtGtGtr I GtrGtr I|-5p3-2-0-(0)-----|--------------|--------------||-0-----------3-3-|---x-------x--|---x-------x--||-0---------------|--------------|--------------||-0---------------|-----------0--|-----------0--||-0---------------|-----0-(0)----|-----0-(0)----||-----------------|-0------------|-0------------|
|-----------------7-|-5-----------|-3-----------|-2-------------||-7p5------0--------|---7-------7-|---5-------5-|---3-----------||-----7-------7-----|--------7----|--------5----|-----1---(1)---||---------------0---|-----------0-|-----------0-|-------------0-||-------0-(0)-------|-----0-(0)---|-----0-(0)---|-------0-(0)---||-0-----------------|-0-----------|-0-----------|-0-------------|
4/4|-----------------7-|-5-----------|---------5S=7------0-|-(0)-0-0-0-0-0-0-0---||-7p5---------------|---7-------0-|-(0)---6-------8---8-|-(8)-8-8-8-7-7-7-7---||-----7----4--7-----|--------7----|-----5-----------7-7-|-(7)-7-7-7-7-7-7-7---||---------------0---|-----------0-|---------------------|-------------------4-||-------0-(0)-------|-----0-(0)---|---------0-(0)-------|---------------------||-0-----------------|-0-----------|--0------------------|---------------------|
||---0----0----0----0----0----0----0--0---|||o--7----7----7----7----7----7----7--7---|||---7----7----7----7----7----7----7--7---|||--(4)-0h==6-(6)-0h==4-(4)-0h==6-(6)p==0-|||o---------------------------------------|||----------------------------------------|
|--0----0---0---0----0----0----0--0----||--5----5---5---5----5----5----5--5----||--5----5---5---5----5----5----5--5----||-(0)h4---0h2p0------------------------||-----------------3-(3)p0--------------||---------------------------2-(2)p==0--|
1.|--0----0---0---0----0----0----0----0---|--0--0-0-0-0-0-0-0----|||--3----3---3---3----3----3----3----3---|--8--8-8-8-7-7-7-7---o|||--3----3---3---3----3----3----3----3---|--7--7-7-7-7-7-7-7----|||---------------------------------2p==0-|-(0)---------------4--|||-----------------3-(3)-0h==1-(1)-------|---------------------o|||-(0)-3---0h2p0-------------------------|----------------------||
2. 2/4|-0-0-0-0-0-0-0-0-||--5-8----7--5-|-12-10----8-----||-8-8-8-8-7-7-7-7-||o-------------|-------------10-||-7-7-7-7-7-7-7-7-||--------------|----------------||-----------------||------------0-|--------------0-||-----------------||o-----0-(0)---|-------0-(0)----||-----------------||--0-----------|--0-------------|
|------8---------|-7-----------||-(10)------9----|---8---(8)---||----------------|-----------9-||--------------0-|-----------0-||--------0-(0)---|-----0-(0)---||---0------------|-0-----------|
|------------------|-------------|--------------|||---10-9--7--------|---5---------|-------------o|||-9----------9---7-|-5------7--7-|-(7)----------|||--------------0---|-----------0-|-----------0--|||------0-(0)-------|-----0-(0)---|-----0-(0)---o|||-0----------------|-0-----------|--0-----------||
|-4tr5---------|-(4tr5)---------|-(4tr5)---------|-(4tr5)---------|-----||--------------|----------------|----------------|----------------|-----||--------------|----------------|----------------|----------------|-----||------------0-|--------------0-|--------------0-|--------------0-|-----||------0-(0)---|--------0-(0)---|--------0-(0)---|--------0-(0)---|-----||-0------------|--0-------------|--0-------------|--0-------------|-----|
Q=65 3/4 3/16||------------------------------------|-------|||o-----------------------------------|---4-1-|||--2-5-2-2-2-2-2-0h2-2---2-2---2-2-2-|-2-2-0-|||--2-5-2-2-2-2-2-0h2-2---2-2---2-2-2-|-2-----|||o-0-------------------------0-------|---2---|||----------------------1-------------|-------|
4/4 3/4|-------------------------------------0-|-(0)-0-0-0-7-5--------------------|||---------------------------------1-3-3-|-(3)-3-3-3-7-5-7-5-7-5-----------o|||-2-2-2-2-2-0h2-2---2-2---2-2-2-2-0-2-0-|-(0)-----------7-5-7-5------------|||-2-2-2-2-2-0h2-2---2-2---2-2-2-2-------|----------------------------------|||-----------------------0---------0-2-3-|-(3)---2---0-----------0-0-0-0-0-o|||-----------------1---------------------|----------------------------------||
2/4 1/167/16 5/16|---0-------2-0-|-5-|-2---------0---|-2-----0---||-1---3-(3)---0-|---|-2---------0---|-2-----0---||-0---2-(2)---5-|---|-6-3-5-3-5-3-1-|-6-3-5-3-1-||-0---2-(2)-----|---|-4---------2---|-4-----2---||-0---2-(2)---0-|---|---------------|-----------||---------------|---|---------------|-----------|
Q=95 4/4 3/4 1/4|-----------------------|-------------------|---------||-----------------------|-------------------|-5p1-(1)-||---------5-----------5-|---------5---------|---------||-4-6-4-----6---4-6-----|-4-6-4-----6---4-6-|---------||-------0-----------0---|-------0-----------|-0-------||-0-----------0---------|-0-----------0-----|---------|
4/4 3/4 2/16|-----------------------|-------------------|-----||-----------------------|-------------------|-----||---------5-----------5-|---------5---------|-----||-4-6-4-----6---4-6-----|-4-6-4-----6---4-6-|---0-||-------0-----------0---|-------0-----------|-0---||-0-----------0---------|-0-----------0-----|-----|
4/4||--12----10-----8-----5--2-|-(2)-------------------|-10-----8----5-----3--0--|||o-12----10-----8-----5--0-|-(0)-------------------|-10-----8----5-----3--1--|||--12-----9-----9-----5--5-|-(5)-------------------|--9-----9----5-----2--0--|||-------------0----------0-|-----------0---------0-|-----------0----------0--|||o-----0-(0)-------0-(0)---|-----0-(0)-----0-(0)---|-----0-(0)------0-(0)----|||---0-----------0----------|--0----------0---------|--0----------0-----------|
|-(0)-------------------|------------------------------||-(1)-------------------|----------------3-(3)---------||-(0)-------------------|-2tr0------2----0-(0)---------||-----------0---------0-|------4-------2-2-(2)-------0-||-----0-(0)-----0-(0)---|--------0-(0)---------0-(0)---||--0----------0---------|-0-----------------0----------|
|------------------------------|------------------------------------||----------------7-(7)---------|---------------12-(12)---(12)-------||-5tr6------5----5-(5)---------|-9-------9------9--(9)----(9)-------||------7-------7-5-(5)-------0-|---12-------10-10-(10)---(10)-4-7-7-||--------0-(0)---------0-(0)---|------0-(0)------------0--(0)-------||-0-----------------0----------|-0------------------0---------------|
2/4 4/4|-------------6-5-|-(5)-(5)-(5)-(5)---(5)---(5)-||-------------6---|------9---9---9-----9-----9--||----------0--5---|------7---7---7-----7-----7--||-7p0-0-----------|-----------------0-----------||-------0-(0)-----|----------0------------0-----||-0---------------|--0--------------------------|
|-----3-----3-----3-----3-----3---|-^2-2-2-^2-2-2-^2-2-^2-2-2-^2-2-2-^2-2-||-----6-----6-----6-----6-----6---|-^3-----^3-----^3---^3-----^3-----^3---||---5-----5-----5-----5-----5-----|-^2-----^5-----^4---^2-----^5-----^4---||-------------0-----0-----0-----0-|---------------------------------------||-------0-------------------------|---------------------------------------||-0-------------------------------|---------------------------------------|
|-^0-0-0-^0-0-0-^0-0-^0-0-0-^0-0-0-^0-0-|-----------4-----------12-||-^1-----^1-----^1---^1-----^1-----^1---|--------3--1---6---11---9-||-^0-----^4-----^2---^0-----^4-----^0---|---2-------2-----------10-||---------------------------------------|-----------0------------0-||---------------------------------------|-----0-(0)-------0-(0)----||---------------------------------------|-0-----------0------------|
|---15p11----13--9------11-7---10--5---7-|-----------4--------10--16-||---------12-------10--------8-------6---|--------3--1---10-------13-||----------------------------------------|---2-------2------------14-||-------------------0----------------0---|-----------0-------------0-||----------0-(0)-------------0-(0)-------|-----0-(0)--------0-(0)----||-0-------------------0------------------|-0-----------0-------------|
1.|----------------------------------|------------------------||----------------------------------|---------0-1---------0--||----------------------------------|---3-------------2------||-10p0-0-6p0-0-9p0-0-4p0-0---------|-2---2---------2--------||--------------------------3p0-----|-------2-----------2----||------------------------------3p0-|-2-----------2----------|
2. <|------------------------||------------------------------------||---------0-1---------0-o||------------------------------------||---3-------------2---2--||------------------------------------||-2---2---------2--------||------------------------------------||-------2-----------2---o||-12p0-0-7p0-0-10p0-0-9p0-0-5p0-3p0--||-2-----------2----------||------------------------------------|
|---------------------------2-0---|---------------------------5-4---||-------------------------------3-|-------------------------------3-||---------0-----------0-----------|---------0-----------0-----------||-----------0-----------0---------|-----------0-----------0---------||---0h6---------0h6---------------|---0h6---------0h6---------------||-0-----0-----0-----0-----0-------|-0-----0-----0-----0-----0-------|
|---------------------------10-10-10-|-10-10-8-(8)-8-5-(5)---------------||------------------------------------|--9----7-(7)---6-(6)---------------||---------0-----------0--------------|--8----7-(7)---5-(5)---------------||-----------0-----------0------------|--7----6-(6)---5-(5)-------------1-||---0h6---------0h6------------------|---------------------3-2-------1---||-0-----0-----0-----0-----0----------|-------------------------3-2-1-----|
|-5-3---1-(1)-3-0-(0)----|-(0)---------------||-4---5-1-(1)---0-(0)----|-(0)---------------||-3-----1-(1)---2-(2)----|-(2)---------------||-3-----1-(1)------------|-------------------||------------------------|-------------------||---------------0-(0)----|-(0)---------------|
|
| Gtr II| TP TPTPTPTPTPTPTP|------------------------|-------------------||------------------------|--x--x-x-x-x-x-x-x-||------------------------|-------------------||------------------------|-------------------||------------------------|-------------------||------------------------|-------------------|
Q=50|--------------10----------------14----|-12-8-10--7--5-5-(5)--------||-7---(7)-8-10----13-15-13---13-----10-|-12-8-10--7--3-3-(3)--------||--------------------------------------|----------------------------||--------------------------------------|----------------------------||---0-(0)------------------0-(0)-------|-------0-(0)---------0-(0)--||-0----------------------0-------------|--0---------------0---------|
H.=H|-------------4---(4)---0-|-^2-----------2-(2)---------||-7---(7)-5-3-1---(1)-3---|-^0-3-0-(0)-3-2-(2)---------||-------------------------|-^0-----------6-(6)-3h4-2---||-------------------------|-^0-----------4-(4)-------6-||---0-(0)-------0-(0)-----|-^0-------------------------||-0-----------0-----------|--------------------------0-|
|---------------10----------------14----|-12-8-10--7--5-5-(5)--------||-^7---(7)-8-10----13-15-13---13-----10-|-12-8-10--7--3-3-(3)--------||---------------------------------------|----------------------------||-^7------------------------------------|----------------------------||----0-(0)------------------0-(0)-------|-------0-(0)---------0-(0)--||-^0----------------------0-------------|--0---------------0---------|
|-3---(3)---0-------------0-|-^2-------------------------||-7---(7)-7---3----3----3---|-^0-3-0-(0)-3-3-(3)---------||-5---(5)-----4----4--4-----|-^0-------------------------||---------------0-(0)-------|-^0-----------------------0-||---------------4-(4)-------|-^0-----------------0-(0)---||-0-6-(6)-----5-------------|-----------------0----------|
|-2p0-------------7-5-----------|-------------2-------------||-----3----0----------7-------7-|-8-5-------5---3-----------||-------------7------------7----|--------5--------1---(1)---||---------------0-------------0-|-----------0-------------0-||-------0-(0)-----------0-(0)---|-----0-(0)---------0-(0)---||-0-----------------0-----------|-0-----------0-------------|
|-2p0-------------7-5-----------|---------------------|--------|||-----3----0----------7-------0-|-3-------------------|--------|||-------------7------------7----|-0----2-------(2)----|-(2)----|||---------------0-------------0-|--------6-----(6)----|-(6)----|||-------0-(0)-----------0-(0)---|----------5---(5)----|-(5)----|||-0-----------------0-----------|-1----------3-(3)----|-(3)----||
Tap to rate this tab
 
# A B C D E F G H I J K L M N O P Q R S T U V W X Y Z