Drift Away tab with lyrics by Rolling Stones - Easy chords and tabs for guitar

Rolling Stones – Drift Away tab

-------------------------------------------------------------------------------
			     Drift Away - Rolling Stones
-------------------------------------------------------------------------------
Tabbed by:Jocke
Email:joakim_lofgren2@hotmail.com

This song was recorded by the Rolling Stones in 1973, written by Mentor Williams. A 
good song, and fun to play!


INTRO:

|-------------------------||------0h2---0h2--5-3--0-2||--2------------------2---||-------------------------||---0-----0------0--------||-------------------------|
|-----0------||----0---3p2-||---0--------||--2---------||------------||------------|
VERSE: D A Day after day I'm more confused D E A But I look for the light through the pourin' rain D A You know, that's a game, I hate to lose Bm D Feelin' the pain, taking the strain Chours: A Give me the beat boys and free my soul E D I wanna get lost in your rock and roll and drift away A Give me the beat boys and free my soul E D D5 B5 A5 F#5 E I wanna get lost in your rock and roll and drift away
|-----0--2--0-----||--2-----------2--||-----------------||-----------------||-----------------||-----------------|
|-----0------||----0---3p2-||---0--------||--2---------||------------||------------|
VERSE: D A Beginin' to think, I'm wastin' time D E A And I don't understand the things I do D A The world outside looks so unkind Bm D I'm countin' on you, to carry me through, so Chours: A Give me the beat boys and free my soul E D D5 B5 A5 F#5 E F# I wanna get lost in your rock and roll and drift away A Give me the beat boys and free my soul E D D5 B5 A5 F#5 E F# I wanna get lost in your rock and roll and drift away
|-----0--2--0-----||--2-----------2--||-----------------||-----------------||-----------------||-----------------|
|-----0------||----0---3p2-||---0--------||--2---------||------------||------------|
Bm when my mind is free D A Your melody can move me Bm when I'm feelin' blue D A The guitars comin' through will soothe me D A Thanks for the joy you've given me D E A I want you to know I believe in your song D A Rhythm, and rhyme, harmony Bm D You helped me along, makin' me strong, so Chours: A Give me the beat boys and free my soul E D I wanna get lost in your rock and roll and drift away A Give me the beat boys and free my soul E D D5 B5 A5 F#5 E F# I wanna get lost in your rock and roll and drift away A Give me the beat boys and free my soul E D D5 B5 A5 F#5 E F# I wanna get lost in your rock and roll and drift away A Give me the beat boys and free my soul E D D5 B5 A5 F#5 E F# I wanna get lost in your rock and roll and drift away A Won't you to take me E Won't you to take me D D5 B5 A5 F#5 E F# Won't you take me A Give me the beat boys...
Please rate this tab:
x1.0