Rooster - No Diggity tab

Rooster
No Diggity (Live on Radio 1)
Tuning: Standard
Transcribed by Soch Hean

Intro:|-----------------------------------------------------------------------------||---------------------5--3b3.5--------------------------------3-3-3-3-3-3-3-3-||---------------------5--3b3.5----------x-x-------------------3-3-3-3-3-3-3-3-||-5---5------5~--5-------------5~-----5-x-x-5-----5~--5-------3-3-3-3-3-3-3-3-||--------3s5----------------------------x-x---3s5-------------1-1-1-1-1-1-1-1-||-----------------------------------------------------------------------------|
Verse:|--------------------------------------------------------------------------||---------------------5--3b3.5----------------------------3-3-3-3-3-3-3-3--||---------------------5--3b3.5----------------------------3-3-3-3-3-3-3-3--||-5---5------5~--5\------------5~-----5---5-----5~--5-----3-3-3-3-3-3-3-3--||---------5---------------------------------3s5-----------1-1-1-1-1-1-1-1--||--------------------------------------------------------------------------|
|-----------------------------------------------------------------------------||-------------------5--3b3.5--------------------------------------------------||-------------------5--3b3.5---------3-3-3-3--5-5-5-5--3--3--3--3--3--3--3--3-||-5---5-----5~--5------------5~------3-3-3-3--5-5-5-5--3--3--3--3--3--3--3--3-||--------x---------------------------1-1-1-1--3-3-3-3--1--1--1--1--1--1--1--1-||-----------------------------------------------------------------------------| PM|-------------|
Verse 2:|--------------------------13----------------------------------------||--------------------------13b15--11---------------------------------||-12---12--------12~--12-------------12~----12---12-------12~---12\--||----------10s12------------------------------------10s12-12~--------||--------------------------------------------------------------------||--------------------------------------------------------------------|
|-6-6-6-6-6-6-6-6-----------------------------------------------||-6-6-6-6-6-6-6-6---------------------------13b15-11------------||-7-7-7-7-7-7-7-7---12---12-------12~--12\-----------12~\-------||-8-8-8-8-8-8-8-8-----------10s12-------------------------------||---------------------------------------------------------------||---------------------------------------------------------------|
|-------------------------------------||-------------------------------------||-3-3-3-3-5-5-5-5-3-3-3-3-3-3-3-3-----||-3-3-3-3-5-5-5-5-3-3-3-3-3-3-3-3-----||-1-1-1-1-3-3-3-3-1-1-1-1-0-0-0-0-----||-------------------------------------|
Chorus:|---------------------------------------||---------------------------------------||----------------------------3-3--5-5---||-5-5-5-5--3-3-3-3--3-3-3-3--3-3--5-5---||-5-5-5-5--3-3-3-3--3-3-3-3--1-1--3-3---||-3-3-3-3--1-1-1-1--0-0-0-0-------------| (x2)
|---------------------------------------||---------------------------------------||----------------------------5-5--5-5---||-5-5-5-5--3-3-3-3--3-3-3-3--5-5--5-5---||-5-5-5-5--3-3-3-3--3-3-3-3--3-3--3-3---||-3-3-3-3--1-1-1-1--0-0-0-0-------------|
|---------------------------------------||---------------------------------------||----------------------------3-3--5-5---||-5-5-5-5--3-3-3-3--3-3-3-3--3-3--5-5---||-5-5-5-5--3-3-3-3--3-3-3-3--1-1--3-3---||-3-3-3-3--1-1-1-1--0-0-0-0-------------|
(1:19)|-----------------------------------------------------------------||----------------------6--------------------------3-3-3-3-3-3-3-3-||------------------5s7---3b3.5--------------------3-3-3-3-3-3-3-3-||-5---5-----5~--5--------------5-3h5--5---5~--5---3-3-3-3-3-3-3-3-||-------3s5-----------------------------5---------1-1-1-1-1-1-1-1-||-----------------------------------------------------------------|
Verse 3: (1:30)|---------------------------------------------------------------||---------------------------------------------------------------||---------------------------------7--6--5-3~--------------------||-------5--3-3--3-5---5--3-3-5---x------------5-x-x-5-----5~--5-||-----5-----------------------------------------------3s5-------||---------------------------------------------------------------| PM|--------------------------|
|------------------------------------------------------6-6-6-6-6-6-6-6-||-3------------------------5--3b3.5------3----5--------6-6-6-6-6-6-6-6-||-3------------------------5--3b3.5------3----5--------7-7-7-7-7-7-7-7-||-3-------5---5-----5~--5-----------5~---3----5--------8-8-8-8-8-8-8-8-||-1-(x8)--------3s5----------------------1----3------------------------||----------------------------------------------------------------------|
|------------------------13---------------------------------------6------||------------------------13b15--11--------------------------------6------||-12---12-------12~--12\-----------12~----12---12-------12~-12\---7------||---------10s12-------------------------12--------10s12-----------8-(x8)-||------------------------------------------------------------------------||------------------------------------------------------------------------|
|----------------------------------------------------------------||----------------------------------------------------------------||--------------------7--6--5-3~--3-3-3-3-5-5-5-5-3-3-3-3-3-3-3-3-||-5---5-----5~--5---x------------3-3-3-3-5-5-5-5-3-3-3-3-3-3-3-3-||-------3s5--------x-------------1-1-1-1-3-3-3-3-1-1-1-1-0-0-0-0-||----------------------------------------------------------------|
Chorus:|---------------------------------------||---------------------------------------||----------------------------3-3--5-5---||-5-5-5-5--3-3-3-3--3-3-3-3--3-3--5-5---||-5-5-5-5--3-3-3-3--3-3-3-3--1-1--3-3---||-3-3-3-3--1-1-1-1--0-0-0-0-------------| (x2)
|---------------------------------------||---------------------------------------||----------------------------5-5--5-5---||-5-5-5-5--3-3-3-3--3-3-3-3--5-5--5-5---||-5-5-5-5--3-3-3-3--3-3-3-3--3-3--3-3---||-3-3-3-3--1-1-1-1--0-0-0-0-------------|
|---------------------------------------||---------------------------------------||----------------------------3-3--5-5---||-5-5-5-5--3-3-3-3--3-3-3-3--3-3--5-5---||-5-5-5-5--3-3-3-3--3-3-3-3--1-1--3-3---||-3-3-3-3--1-1-1-1--0-0-0-0-------------|
Guitar Solo:|-------------------6--------13-12-10-12----12----------------------||--------------6-8--6-8-6-8~-------------11----11-------------------||-----3-5-5s7~------------------------------------12-10h12~-10--10\-||-3s5---------------------------------------------------------------||-------------------------------------------------------------------||-------------------------------------------------------------------|
|-6--------15-13-15-13-----------------------15--------------------||-6-------x-------------15--15s17~--15-17b18----17b18rp15-17----15-||-7----------------------------------------------------------17----||-8-(x8)-----------------------------------------------------------||------------------------------------------------------------------||------------------------------------------------------------------|
|-------------------------------15---------18--15~--||----------------------------------18b20~-----------||-15----------------------17b19---------------------||----17p15--------15-17~----------------------------||----------17p15------------------------------------||---------------------------------------------------|
|----------------------------||---18--17-15----15----------||--x----------17----17--15~--||-x--------------------------||----------------------------||----------------------------|
Bridge:|--------------------------------------------------------------------||--------------------------------------------------------------------||--------------------------------------------------------------------||----5-5-5-5-5-5-5-5-5-5-5-5-5-5-5-5-3-3-3-3-3-3-3-3-2-2-2-2-3-3-3-3-||--------------------------------------------------------------------||--------------------------------------------------------------------| PM|---------------------------------------------------------------|
|------------------------------------------------------------------------||-------------------------6~---------------------------------------------||---------------------5s7-----3b3.5--------------------------------------||----5-5-5-5-5-5-5-5-----------------5-3-3-3-3-3-3-3-3-2-2-2-2-3-3-3-3---||------------------------------------------------------------------------||------------------------------------------------------------------------| PM|---------------| PM|-----------------------------------|
Chorus:|---------------------------------------||---------------------------------------||----------------------------3-3--5-5---||-5-5-5-5--3-3-3-3--3-3-3-3--3-3--5-5---||-5-5-5-5--3-3-3-3--3-3-3-3--1-1--3-3---||-3-3-3-3--1-1-1-1--0-0-0-0-------------| (x2)
|---------------------------------------||---------------------------------------||----------------------------5-5--5-5---||-5-5-5-5--3-3-3-3--3-3-3-3--5-5--5-5---||-5-5-5-5--3-3-3-3--3-3-3-3--3-3--3-3---||-3-3-3-3--1-1-1-1--0-0-0-0-------------|
Outro:|---------------------------------------||---------------------------------------||----------------------------3-3--5-5---||-5-5-5-5--3-3-3-3--3-3-3-3--3-3--5-5---||-5-5-5-5--3-3-3-3--3-3-3-3--1-1--3-3---||-3-3-3-3--1-1-1-1--0-0-0-0-------------|
Legend: s - slide b - bend r - release PM - palm mute h - hammeron
Tap to rate this tab
 
# A B C D E F G H I J K L M N O P Q R S T U V W X Y Z