Man On The Moon tab with lyrics by Running Wild - Easy chords and tabs for guitar

Running Wild – Man On The Moon tab

This tab was not written by me, but since it seems like a good tab I'll submit it and 
that it's okay with "Lasse". ;-)


                                 Man on the Moon
                                 by Running Wild

                              Taken from the album
                                  The Rivalry


Transcribed by Lasse: skonummer42@hotmail.com

Tempo:176bpm


h  = hammer on
p  = pull off
b  = bend whole step
br = bend whole step and release
x  = palm mutes
~  = vibrato
Ah = artificial harmonics

Keep the flag high...

Standard tuning.


Riff 1|--------------------------|--------------------------||--------------------------|--------------------------||--------------------------|--------------------------||--3-----------------------|--------------------------||--3-----------------------|--------------------------||--1-----------------------|--------------------------|
Riff 2|--------------------------|--------------------------||--------------------------|--------------------------||--------------------------|--------------------------||--5----5--8--5--10--8--5--|--5----5--8--5--5--8------||--5----5--8--5--10--8--5--|--5----5--8--5--5--8------||--3----3--6--3--8---6--3--|--3----3--6--3--3--6------|
|--------------------------|--------------------------||--------------------------|--------------------------||--------------------------|--------------------------||--5----5--8--5--10--8--5--|--1----1--3--1--3--3------||--5----5--8--5--10--8--5--|--1----1--3--1--3--3------||--3----3--6--3--8---6--3--|----------------1--1------|
Riff 3|--------------------------|--------------------------||--------------------------|--------------------------||--------------------------|--------------------------||--5-----------------------|--------------------------||--5-----------------------|--------------------------||--3-----------------------|--------------------------|
|--------------------------|--------------------------||--------------------------|--------------------------||--------------------------|--------------------------||--10----8-----------------|--1-----------------------||--10----8-----------------|--1-----------------------||--8-----6-----------------|--------------------------|
|--------------------------|--------------------------||--------------------------|--------------------------||--------------------------|--------------------------||--3-----------------------|--10----8--------3--------||--3-----------------------|--10----8--------3--------||--1-----------------------|--8-----6--------1--------|
|--------------------------|--------------------------||--------------------------|--------------------------||--------------------------|--------------------------||--5-----------------------|--8----------3------------||--5-----------------------|--8----------3------------||--3-----------------------|--6----------1------------|
Riff 4|--------------------------|--------------------------||--------------------------|--------------------------||--------------------------|--------------------------||--3--------5--------------|--------------0-----------||--3--------5--------------|-----0--1--3-----3--1--0--||--1--------3--------------|--3-----------------------|
|--------------------------|--------------------------||--------------------------|--------------------------||--------------------------|--0-----------------------||--3--------5--------------|-----3--0-----------------||--3--------5--------------|-----------3-----1--3-(1)-||--1--------3--------3--3--|--------------------------| x x x x () play 2nd time
Riff 5|-------------------------|--------------------------||-------------------------|--------------------------||-------------------------|--------------------------||--5--------3----------8--|--------------0-----------||--5--------3----------8--|-----1--1--3-----3--1--0--||--3--------1----------6--|--------------------------|
|-------------------------|--------------------------||-------------------------|--------------------------||-------------------------|--------------------------||--5--------3----------8--|-----------0--------------||--5--------3----------8--|-----1--3-----3--1--------||--3--------1----------6--|--------------------3--1--|
|-------------------------|--------------------------||-------------------------|--------------------------||-------------------------|--------------------------||--5--------3----------8--|--------------0-----------||--5--------3----------8--|-----1--1--3-----3--1--0--||--3--------1----------6--|--------------------------|
|-------------------------|--------------------------||-------------------------|--------------------------||-------------------------|--------------------------||--5--------3----------8--|--------------------------||--5--------3----------8--|-----1--1--3--1--0--------||--3--------1----------6--|--------------------3--1--|
Riff 6 & solo part 1|------------------------|--------------------------||------------------------|--------------------------||------------------------|--------------------------||--5---------------------|--------------------------||--5---------------------|--------------------------||--3---------------------|--------------------------|
| ||------------------------|--------------------------||--ah--------------------|--------------------------||--12~-------------------|--------10h12p10----------||------------------------|------------------12--10--||------------------------|--------------------------||------------------------|--------------------------|
|------------------------|--------------------------||------------------------|--------------------------||------------------------|--------------------------||--8---------------------|--------------------------||--8---------------------|--------------------------||--6---------------------|--------------------------|
| ||------------------------|--------------------------||------------------------|--------------------------||------------------------|--------------------------||------------------------|--------------------------||--13~-------------------|--------------17--15--13--||------------------------|--------------------------|
|------------------------|--------------------------||------------------------|--------------------------||------------------------|--------------------------||--3---------------------|--------------------------||--3---------------------|--------------------------||--1---------------------|--------------------------|
| ||------------------------|--------------------------||------------------------|--------------------------||------------------------|--------------------------||------------------------|--------------------------||--17-----15~------------|------13--15--17--15--13--||------------------------|--------------------------|
|------------------------|--------------------------||------------------------|--------------------------||------------------------|--------------------------||--10--------------------|--3-----------------------||--10--------------------|--3-----------------------||--8---------------------|--1-----------------------|
| ||------------------------|--20~-------------15--18--||------------------------|--------------------------||--ah--------------------|--------------------------||--15~---------------12--|--------------------------||------------------------|--------------------------||------------------------|--------------------------|
|------------------------|--------------------------||------------------------|--------------------------||------------------------|--------------------------||--5---------------------|--------------------------||--5---------------------|--------------------------||--3---------------------|--------------------------|
| ||--20b-20b~--------------|--------18--20--20br--18--||------------------------|--------------------------||------------------------|--------------------------||------------------------|--------------------------||------------------------|--------------------------||------------------------|--------------------------|
|------------------------|--------------------------||------------------------|--------------------------||------------------------|--------------------------||--8---------------------|--------------------------||--8---------------------|--------------------------||--6---------------------|--------------------------|
| ||------------------------|--------------------------||--20~-------------------|----------15--15h-16p-15--||------------------------|--------------------------||------------------------|--------------------------||------------------------|--------------------------||------------------------|--------------------------|
|------------------------|--------------------------||------------------------|--------------------------||------------------------|--------------------------||--3---------------------|--------------------------||--3---------------------|--------------------------||--1---------------------|--------------------------|
| ||------------------------|--------------------------||--ah--------------------|--------------------------||--17~-------------------|------15--17--19--17--15--||------------------------|--------------------------||------------------------|--------------------------||------------------------|--------------------------|
|------------------------|--------------------------||------------------------|--------------------------||------------------------|--------------------------||--10--------------------|--3-----------------------||--10--------------------|--3-----------------------||--8---------------------|--1-----------------------|
| ||------------------------|--------------------------||--------------------11--|--13br--------------------||------------------------|--------------------------||--17~-------------------|--------------------------||------------------------|--------------------------||------------------------|--------------------------|
Riff 7|--------------------------|--------------------------||--------------------------|--------------------------||--------------------------|--------------------------||--5----5--8--5--10--8--5--|--5----5--8--5--5--8------||--5----5--8--5--10--8--5--|--5----5--8--5--5--8------||--3----3--6--3--8---6--3--|--3----3--6--3--3--6------|
|--------------------------|--------------------------|----|||--------------------------|--------------------------|----|||--------------------------|--------------------------|----|||--5----5--8--5--10--8--5--|--1----1--3--1--3--3--8---|--5-|||--5----5--8--5--10--8--5--|--1----1--3--1--3--3--8---|--5-|||--3----3--6--3--8---6--3--|----------------1--1--6---|--3-||
Playlist: Riff 1 x 1 Riff 2 x 4 Riff 3 x 2 Riff 4 x 2 Riff 3 x 2 Riff 4 x 2 Riff 5 x 1 Riff 2 x 2 Riff 3 x 2 Riff 4 x 2 Riff 5 x 1 Riff 6 x 1 + Solo part 1 Riff 2 x 4 + Solo part 2, hope someone can fill it in Riff 2 x 2 Riff 3 x 2 Riff 4 x 2 Riff 5 x 2 Riff 2 x 3 Riff 7 x 1 END!!!
Please rate this tab:
x1.0