Scandal - Scandal Baby tab

Scandal Baby
by: Scandal

well another scandalicious scandal song hehehe...
madali lang yan promise!!!
i hope you like it!!!
especially Yhan!!
eto na huh!!
wag ka na iyak...
BTW, this is Mami's guitar part only

Tuning: Standard (EADGBe)






Intro: (clean)*|-------------------------------|-----------------------------------|*|-------------------------------|-----------------------------------|*|-------------------------------|-----------------------------------|*|-----5-------7-------9-9-7-7-5-|-------5-------7-------------------|*|-3-3---0-5-5---0-7-7-----------|-0-3-3---0-5-5---0-5-5-5-5/7-7-7-7-|*|-------------------------------|-------------------3-3-3-3/5-5-5-5-|
*|---------------------------------|------------------|-------------|*|---------------------------------|------------------|-------------|*|---------------------------------|------------------|--0--0-0-0-0-|*|-------5-------7-------9-9-7-7-5-|-------5-------7--|0-2--2-2-2-2-|*|-0-3-3---0-5-5---0-7-7-----------|-0-3-3---0-5-5----|0-2--2-2-2-2-|*|---------------------------------|------------------|-------------| hit distortion...
Intro Riff: *|--------------------------------------------|------------------------------------------|*|--------------------------------------------|------------------------------------------|*|-14b-12-14p12----12-----12----12h14-14b-12~-|-14b-12-14p12----12-----12----------------|*|--------------14----14-----14---------------|--------------14-----14-------------12h14-|*|--------------------------------------------|---------------------------14p12h14-------|*|--------------------------------------------|------------------------------------------|
*|--------------------------------------|-----------------------------|*|--------------------------------------|-----------------14----------|*|-14b-12-14p12----12-----12h14-14b-12~-|-14b-12-14p12h14----14p12h14-|*|--------------14-----14---------------|-----------------------------|*|--------------------------------------|-----------------------------|*|--------------------------------------|-----------------------------|
Verse: C5-D5-E5 C5-D5-G5-A5 C5-D5-E5 C5-D5
then followed by this lick: but for second verse change the first lick to this:*|--------------| *|--------------|*|--------------| *|--------------|*|--------------| *|--------------|*|---5p4----4-2-| *|---4/5----4-2-|*|-2------2-----| *|-2------4-----|*|--------------| *|--------------|
then proceed.... C5-D5-E5-A5 C5-B5-E5-A5 C5-D5-E5 Refrain: A5-B5-C5-G5 A5-B5-C5-D5-C5-D5-C5
then...*|-------------|*|-------------|*|-------------|*|-4--5/4/5/4~-|*|-2--3/2/3/2~-|*|-------------|
Chorus: C5-D5-E5-A5 C5-D5-G5 C5-B5-E5-A5 C5-B5-E5-A5 C5-D5-E5-A5 C5-D5-G5-A5 C5-B5-E5-A5 C5-D5-E5 C5-D5-E5 Instrumentals1:
*|---------------------------|---------------------------------|*|---------------------------|---------------------------------|*|---------------------------|---------------------------------|*|-7b-5h7p5---5----5-7-7b-5~-|-7b-5h7p5---5----5---------------|*|----------7----7-----------|----------7----7---7p5-------5h7-|*|---------------------------|-----------------------7p5h7-----|
*|---------------------------|---------------------------|*|---------------------------|---------------------------|*|---------------------------|------------6--------------|*|-7b-5h7p5---5----5-7-7b-5~-|-7b-5h7p5-7---7p6--7p6h7p6-|*|----------7----7-----------|---------------------------|*|---------------------------|---------------------------|
Guitar Solo:*|------------------------------|--------------|----------------------|*|-7--7--7--8---8---7--7--7--5~-|-7--7--7--8---|-10--12--12--12--12~--|*|-9b-9b-9b-11b-11b-9b-9b-9b-7b~|-9b-9b-9b-11b-|-12b-14b-14b-14b-14b~-|*|------------------------------|--------------|----------------------|*|------------------------------|--------------|----------------------|*|------------------------------|--------------|----------------------|
*|-x-10-x-x-12-x-x-15-x-x-10-x-x-12-x-x-15-x-x-17-x-x-15-x-x-|-15-x-x-17-x-x-19-19-20-20-19-|*|-x--7-x-x--9-x-x-12-x-x--7-x-x--9-x-x-12-x-x-14-x-x-12-x-x-|-12-x-x-14-x-x-16-16-17-17-16-|*|-----------------------------------------------------------|------------------------------|*|-----------------------------------------------------------|------------------------------|*|-----------------------------------------------------------|------------------------------|*|-----------------------------------------------------------|------------------------------|
*|-19/22-|-22b-22b-22b-22b-22b-22b-22b-22fb-22fb-22fb-22fb~-|*|-16/19-|-19b-19b-19b-19b-19b-19b-19b-19fb-19fb-19fb-19fb~-|*|-------|--------------------------------------------------|*|-------|--------------------------------------------------|*|-------|--------------------------------------------------|*|-------|--------------------------------------------------| alt. pick.
Bridge: F5-C-G5 F5-C-G5 F5-C5-D5-B5
then...*|-------------------------------|-----------------------------------|*|-------------------------------|-----------------------------------|*|-------------------------------|-----------------------------------|*|-----5-------7-------9-9-7-7-5-|-------5-------7-------------------|*|-3-3---0-5-5---0-7-7-----------|-0-3-3---0-5-5---0-3-3-3-3/4-4-4-4-|*|-------------------------------|-----------------------------------|
*|-------------------------------|-----------------|------------|*|-------------------------------|-----------------|------------|*|-------------------------------|-----------------|------------|*|-----5-------7-------9-9-7-7-5-|-------5-------7-|-0--3-3-3-3-|*|-3-3---0-5-5---0-7-7-----------|-0-3-3---0-5-5---|-0--3-3-3-3-|*|-------------------------------|-----------------|----1-1-1-1-|
Instrumentals2:*|-------------------------------|-------------------------------|*|-10b-8-10p8---8----8-10-10b-8~-|-10b-8-10p8----8---------------|*|------------9----9-------------|------------9----9p7-------7h9-|*|-------------------------------|---------------------9p7h9-----|*|-------------------------------|-------------------------------|*|-------------------------------|-------------------------------|
*|-------------------------------|---------------10--------------|*|-10b-8-10p8---8----8-10-10b-8~-|-10b-8-10p8h10----10-9-10p9h10-|*|------------9----9-------------|-------------------------------|*|-------------------------------|-------------------------------|*|-------------------------------|-------------------------------|*|-------------------------------|-------------------------------|
Outro:*|-------------------------------|-------------------------------|*|-10b-8-10p8---8----8-10-10b-8~-|-10b-8-10p8----8---------------|*|------------9----9-------------|------------9----9p7-------7h9-|*|-------------------------------|---------------------9p7h9-----|*|-------------------------------|-------------------------------|*|-------------------------------|-------------------------------|
*|-------------------------------|---------------10--------------|*|-10b-8-10p8---8----8-10-10b-8~-|-10b-8-10p8h10----10-9-10p9h10-|*|------------9----9-------------|-------------------------------|*|-------------------------------|-------------------------------|*|-------------------------------|-------------------------------|*|-------------------------------|-------------------------------|
*|-------------------------------|-------------------------------|*|-10b-8-10p8---8----8-10-10b-8~-|-10b-8-10p8----8---------------|*|------------9----9-------------|------------9----9p7-------7h9-|*|-------------------------------|---------------------9p7h9-----|*|-------------------------------|-------------------------------|*|-------------------------------|-------------------------------|
*|-------------------------------|---------------10--------------|*|-10b-8-10p8---8----8-10-10b-8~-|-10b-8-10p8h10----10-9-10p9h10-|*|------------9----9-------------|-------------------------------|*|-------------------------------|-------------------------------|*|-------------------------------|-------------------------------|*|-------------------------------|-------------------------------|
*|--------------------------------------------|------------------------------------------|*|--------------------------------------------|------------------------------------------|*|-14b-12-14p12----12-----12----12h14-14b-12~-|-14b-12-14p12----12-----12----------------|*|--------------14----14-----14---------------|--------------14-----14-------------12h14-|*|--------------------------------------------|---------------------------14p12h14-------|*|--------------------------------------------|------------------------------------------|
*|--------------------------------------|-----------------------------|*|--------------------------------------|-----------------14----------|*|-14b-12-14p12----12-----12h14-14b-12~-|-14b-12-14p12h14----14p12h14-|*|--------------14-----14---------------|-----------------------------|*|--------------------------------------|-----------------------------|*|--------------------------------------|-----------------------------|
*|-----------------------|--------------|-0~----|*|-----------------------|--------------|-1~----|*|-14b-12-14p12-----12-x-|-0----0-0-0-0-|-0~----|*|---------------14------|-0-2--2-2-2-2-|-2~----|*|-----------------------|-0-2--2-2-2-2-|-3~----|*|-----------------------|--------------|-x-----|
end..... Ledger: h hammer on p pull off / slide x dead string ~ let ring alt.pick alternate picking/pick b bend fb full bend for any comments, questions, suggestions or else please kindly post it here or on my facebook: bwahaha_13@yahoo.com or visit my blog for some updates: juliusabay.blogspot.com
Tap to rate this tab
 
# A B C D E F G H I J K L M N O P Q R S T U V W X Y Z