Scandal - Queens Are Trumps tab

[INTRO]Guitar [0:05-0:09]------------------------------------------------------------------|------------------------------------------------------------------|-------2(ph)b4b2h0------------------------------------------------|--2----------------2-0-------0-----------------------------2------|--2---------------------0--2----0--2-----------------------2------|--0----------------------------------3----(3)bend----------0------|
Guitar 1 [0:15-0:17]----------------------------------------------------------------|----------------------------------------------------------------|--7h9h7h9h7h9h7h9h7h9h7h9--7------------------------------------|------------------------------9\7-5-----------------------------|-------------------------------------7--------------------------|----------------------------------------------------------------|
Guitar 2 [0:18-0:20]--12-----12------------------12---------------------------------|--15b17-------15---12------------12-----------------------------|----------------------14b16----------14-14b16bh14--12-----------|----------------------------------------(ph)-----------14-------|----------------------------------------------------------------|----------------------------------------------------------------|
Guitar 1 [0:20-0:39] (repeat x 4)----------------------------------------------------------------|----------------------------------------------------------------|--/9--9-7---------------------/9--9-7---------------------------|----------9-8-7-5-----5--7------------9-8-7-5-----5-------------|-------------------7---------------------------7-----7----------|----------------------------------------------------------------|
Guitar 2 [0:30-0:39]--12-----12-----------------------------------------------------|--15b17--15b17--15--12------------------------------------------|-----------------------14b15b14--12----12--14-------------------|------------------------------------14--------------------------|----------------------------------------------------------------|----------------------------------------------------------------|
--12-----12-----------------------------------------------------|--15b17--15b17--15--12------------------------------------------|-----------------------14b15b14--12----12-----------------------|------------------------------------14-----14-------------------|----------------------------------------------------------------|----------------------------------------------------------------|
--12-----12-----------------------------------------------------|--15b17--15b17--15--12------------------------------------------|-----------------------14b15b14--12----12--14-------------------|------------------------------------14--------------------------|----------------------------------------------------------------|----------------------------------------------------------------|
--15-12----15-12----15-12----15-12----15b17-15~-----------------|--------12-------12-------12-------12---------------------------|----------------------------------------------------------------|----------------------------------------------------------------|----------------------------------------------------------------|----------------------------------------------------------------|
[VERSE 1]Guitar 1 [0:40-0:59]-----------------------|----------------------------------------|-----------------------|-----------------8----------------------|--7-7--7h9--9----------|(x3)---7-7--7h9------9------------------|-----------------5-7---|----------------------------------------|-----------------------|----------------------------------------|-----------------------|----------------------------------------|
-----------------------|----------------------------------------|-----------------------|-----------------8~---------------------|--7-7--7h9--9----------|(x2)---7-7--7h9-----7-9-----------------|-----------------5-7---|----------------------------------------|-----------------------|----------------------------------------|-----------------------|----------------------------------------|
----------------------------------------------------------------|----------------------------------------------------------------|---9-7----------------------------------------------------------|--------9-8-7-5-----5-------------------------------------------|-----------------7-----7----------------------------------------|----------------------------------------------------------------|
[PRE-CHORUS][1:00-1:16]----------------------------------------------------------------|-----------------------------------(ph)-------------------------|---------------------14b-----------12b14~-----------------------|---7---6---5---------14b---12--14---------14-12-14--------------|----------------------------------------------------------------|----------------------------------------------------------------|
----------------------------------------------------------------|----------------------------------------------------------------|----------------------------------------------------------------|---7---6---5----------------------------------------------------|------------------7---------------------------------------------|----------------------------------------------------------------|
[CHORUS]Guitar 1 [1:18-1:38] (Repeat x 4)----------------------------------------------------------------|----------------------------------------------------------------|--/9--9-7---------------------/9--9-7---------------------------|----------9-8-7-5-----5--7------------9-8-7-5-----5-------------|-------------------7---------------------------7-----7----------|----------------------------------------------------------------|
[VERSE 2]Guitar 1 [1:39-1:58]-----------------------|----------------------------------------|-----------------------|-----------------8----------------------|--7-7--7h9--9----------|(x3)---7-7--7h9------9------------------|-----------------5-7---|----------------------------------------|-----------------------|----------------------------------------|-----------------------|----------------------------------------|
-----------------------|----------------------------------------|-----------------------|-----------------8~---------------------|--7-7--7h9--9----------|(x2)---7-7--7h9-----7-9-----------------|-----------------5-7---|----------------------------------------|-----------------------|----------------------------------------|-----------------------|----------------------------------------|
----------------------------------------------------------------|----------------------------------------------------------------|---9-7----------------------------------------------------------|--------9-8-7-5-----5-------------------------------------------|-----------------7-----7----------------------------------------|----------------------------------------------------------------|
Guitar 2 [1:48-1:58]-----------------------|----------------------------------------|--7-7--7h8--8----------|-------7-7--7h8--8~---------------------|-----------------7-9---|(x2)----------------7-9-----------------|-----------------------|----------------------------------------|-----------------------|----------------------------------------|-----------------------|----------------------------------------|
---------12-----------------------------------------------------|----------------15--12------------------------------------------|-----------------------14b15b14--12----12-----------------------|------------------------------------14-----14-------------------|----------------------------------------------------------------|----------------------------------------------------------------|
[PRE-CHORUS][2:03-2:08] "Oh Sh!t"----------------------------------------------------------------|----------------------(ph)--------------------------------------|--12---14--12---------12~---------------------------------------|--12-----------12--14------14--12--14--12-----------------------|-------------------------------------------12-10----------------|----------------------------------------------------------------|
----------------------------------------------------------------|----------------------------------------------------------------|----------------------------------------------------------------|-------------------------(ph)-----------------------------------|--12--10-----10--12--10--12b14--10------------------------------|----------12----------------------------------------------------|
[2:12-2:15]--15-12----15-12----15-12----15-12------------------------------|--------12-------12-------12-------12---------------------------|----------------------------------------------------------------|----------------------------------------------------------------|----------------------------------------------------------------|----------------------------------------------------------------|
[CHORUS] (Guitar 1 same as before)
Guitar 2 [2:20-2:37]-12-----12------12-----14-----14-----15-------------------------|-15b17--15b17---15b17--17b19--17b19--18b20----------------------|----------------------------------------------------------------|----------------------------------------------------------------|----------------------------------------------------------------|----------------------------------------------------------------|
--------12------12-----14-----14-----15-------------------------|--------15b17---15b17--17b19--17b19--18b20----------------------|----------------------------------------------------------------|----------------------------------------------------------------|----------------------------------------------------------------|----------------------------------------------------------------|
--12-----12-----------------------------------------------------|--15b17--15b17--15--12------------------------------------------|-----------------------14b15b14--12----12-----------------------|------------------------------------14-----14-------------------|----------------------------------------------------------------|----------------------------------------------------------------|
Tap to rate this tab
 
# A B C D E F G H I J K L M N O P Q R S T U V W X Y Z