Scorpions - No One Like You tab

Band:  Scorpions
Album: Blackout
Song:  No One Like You

Copyright (c)  (Harvest) (1982)
Version 1.0 - (29/07/06)

Transcribed By: Steve
Email:          stephen.elvidge1@ntlworld.com


.  - palm mute           /  - slide up to
\  - slide down to       ~  - vibrato
h  - hammer on           b  - Bend
p  - pull off            Suffixes for bend
t  - tap                 f  - full bend    h - half bend
ph - pinched harmonic    q  - quarter bend t - tap bend
*  - see comment         ^  - Hold bend    r release bend
x  - Stuccatto           ~  - vibrato bend
,  - slight palm mute    () - ghost note, sustained note
"  - tremolo note        <> - harmonic
pb - pre bend

Tuning E A D G B E


 Main Riff

|----------------------------------||----------------------------------||-2-2------------------------------||-2-2--------3-3--------5-5--------||-0-0--------3-3--------5-5--------||------------1-1--------3-3--------| Rpt 3 x
|---------------------------------||---------------------------------||---------------------------------||-3----(3)-----2--(2)-------------||-3----(3)-----2--(2)-------------||-1----(1)-----0--(0)--0-3p0-3p0--|
|----------------------------------||----------------------------------||-2-2------------------------------||-2-2--------3-3--------5-5--------||-0-0--------3-3--------5-5--------||------------1-1--------3-3--------| Rpt 3 x
|--------------------------------------------||--------------------------------------------||--------------------------------------------||-3----(3)-----2------------(2)--------------||-3----(3)-----2------------(2)--------------||-1----(1)-----0------------(0)--------------|
Intro lead ~~~~~~~~~~~~~ h ~~~~~~~~~|---15fb----------\---------------------------------------------||-------------------------13---------------------------------13-||-------------------14-16----16-14-12-14p12------------14-16----||-------------------------------------------14------------------||---------------------------------------------------------------||---------------------------------------------------------------|
~~~~~~~~~~ ~~~~~~~~|-------------15-------------\-----------17-------20b-fb--r20-------||----------15b---15fb-------------17-20b----20p17-------------------||-16-14-12--------------------/19-----------------------------------||-------------------------------------------------------------------||-------------------------------------------------------------------||-------------------------------------------------------------------|
~~~~~ ~~~~~|-17-20-19-17-19-17----17----------------------------------||-------------------20----20b---\15b---r15p13----15b----\--||---------------------------------------------14-----------||----------------------------------------------------------||----------------------------------------------------------||----------------------------------------------------------|
Guitar 1 ~~~~~~~~~~~~~ h ~~~~~~~~~[---15fb----------\---------------------------------------------|[-------------------------13---------------------------------13-|[-------------------14-16----16-14-12-14p12------------14-16----|[-------------------------------------------14------------------|[---------------------------------------------------------------|[---------------------------------------------------------------|
[Guitar 2[---18fb------------------12---------------------------------12-|[-------------------13-15----15-13-12-13p12------------13-15----|[-------------------------------------------14------------------|[---------------------------------------------------------------|[---------------------------------------------------------------|[---------------------------------------------------------------|
Guitar 1 ~~~~~~~~~~ ~~~~~~~~[-------------15-------------\-----------17-------20b-fb--r20-------|[----------15b---15fb-------------17-20b----20p17-------------------|[-16-14-12--------------------/19-----------------------------------|[-------------------------------------------------------------------|[-------------------------------------------------------------------|[-------------------------------------------------------------------|
[Guitar 2[ ~~~~~~~~~~ ~~~~~~~~[-------------20------------------------17-------20b-fb--r20--------|[-15-13-12-18b---18fb------------17-20b----20p17--------------------|[----------------------------/19------------------------------------|[-------------------------------------------------------------------|[-------------------------------------------------------------------|[-------------------------------------------------------------------|
Guitar 1
[-17-20-19-17-19-17----17----17----------17----------------------------|[-------------------20----20b---20-17-------20p17-17-18-17-15-13-12brp-|[-------------------------------------19b------------------------------|[----------------------------------------------------------------------|[----------------------------------------------------------------------|[----------------------------------------------------------------------|
[Guitar 2[----------------------------10----------10----------------------------|[-15-18-17-15-17-15-13-15-13b---13-10-------13p10-13-15-13-12----12brp-|[-------------------------------------12b---------------------14-------|[----------------------------------------------------------------------|[----------------------------------------------------------------------|[----------------------------------------------------------------------|
Guitar 1 ~~~~~~~~~~~~~~~[------------------12----------------\--|[-10-12----p10--------------------------|[---------------------------------------|[---------------------------------------|[---------------------------------------|[---------------------------------------|
[Guitar 2[ ~~~~~~~~~~~~~~~[------------------12----------------\--|[-10-12----p10--------------------------|[---------------------------------------|[---------------------------------------|[---------------------------------------|[---------------------------------------|
Verse Clean guitar
|---------0-----------1-------------0----------1---||-------1---1-------1-------------1---1-------1----||-----2-------2---2-------------2-------2---2------||---2-----------3-------2-0---2-----------3--------||-0-------------------------3-0--------------------||--------------------------------------------------|
|-------0-------------1-----------------0--------------0--||-----1---1---------1---1-------------1----1---------0----||---2-------2-----2-----------------0--------0-----1------||-2-----------2-3---------2-0------------------2----------||-0---------------------------0-2-3-----------------------||---------------------------------------------------------|
Distorted fill
|-----------------||-----------------||-----------------||-------2-0-------||-----2-----2-3-\-||-0-4-------------|
Distorted riff Plays along with clean guitar ~~~|----------------------------||----------------------------||----------------------------||-2-----2---2----------------||-0-----0---0---3-(3)-2-3/5--||----3--------3-1-(1)--------|
~~~ ~~~~~~~|-----------------------------||-----------------------------||-----------------------------||-2-----2---2-----------------||-0-----0---0---3-(3)-3--2--0-||----3--------3-1-(1)---------|
~~~|----------------------------||----------------------------||----------------------------||-2-----2---2----------------||-0-----0---0---3-(3)-2-3/5--||----3--------3-1-(1)--------|
Guitar 1[----------------------------------------|[----------------------------------------|[-5---------------9------------------9-\-|[-5---------------9------------------9-\-|[-3-----(3)-------7------------------7-\-|[----------------------------------------|
[Guitar 2[ phphphphphph[----------------------------------------|[----------------------------------------|[----------------------------------------|[----------------------------------------|[---------------------7-7----------------|[-------------------------7-7--4-4-0-0---|
Chorus Rpt Main Riff with lead fills
|---------------------------------------------------||---------------------------------------------------||-pb7-----r-----7p5--7b---------to feedback-----\---||---------------------------------------------------||---------------------------------------------------||---------------------------------------------------|
Rpt Verse Rpt Chorus
phphph ~~~~~|-------------------||-----5-------------||-5-7---------------||-------7-7------\--||-------------------||-------------------|
~~~~~~~~~~~|-----10---15b---------\--||-12b---------------------||-------------------------||-------------------------||-------------------------||-------------------------|
ph ~~~~~~~~~~~~~~~~~~~|-----------------------------||--------8fb------------------||-----------------------------||-----------------------------||---0-------------------------||-1---3-----------------------|
Backing for guitar solo is Main Riff 2 x
Guitar solo ~~~~~~~~~~~~~~|-------------------------------------------------------------------||--------------------------------------8b-------------\-10b-r-10p8--||-7b-7b-7b-7b-7b-7b-7b-7br7-7-7bp5-7p5------------------------------||-------------------------------------------------------------------||-------------------------------------------------------------------||-------------------------------------------------------------------|
h ~~~~~~~|---------------------5--------------------------------------------||-10--13----b-------5---7p5----------------------------------------||--------------7-b----------5-7p5----7p5---------------------------||---------------------------------7------7p5-7p5-------------------||------------------------------------------------7-6-5-3-b------r--||------------------------------------------------------------------|
Guitar 1 ~~~~~~~~~~~~~ h ~~~~~~~~~[---15fb----------\----------------------19fb---------\--|[-------------------------13-----------------------------|[-------------------14-16----16-14-12-14-----------------|[--------------------------------------------------------|[--------------------------------------------------------|[--------------------------------------------------------|
[Guitar[ ~~~~~~~~~~~~~ ~~~~~~~~~[---18fb-----------\17-19-20-19-17-15-17-22fb---------\--|[--------------------------------------------------------|[--------------------------------------------------------|[--------------------------------------------------------|[--------------------------------------------------------|[--------------------------------------------------------|
|--------17----17----17----17----17----17-20b-17----17-20b-17----17-||-----20b---20b---20b---20b---20b---20b----------20b----------20b---||-/19---------------------------------------------------------------||-------------------------------------------------------------------||-------------------------------------------------------------------||-------------------------------------------------------------------|
~~~|----1717-1616-15--------15----------15----------15-----------------||-20b--------------15-17----17-15-17----17-15-17----17-15-17-20b----||-------------------------------------------------------------------||-------------------------------------------------------------------||-------------------------------------------------------------------||-------------------------------------------------------------------|
~~~~|-----17-------------------------------------------||-20fb---20-17-16-17-16-15-------------------------||--------------------------14-13-------------------||--------------------------------14-12--10----12-\-||--------------------------------------------------||--------------------------------------------------|
Rpt Chorus to fade
Additional guitar [------------------PM-------------------]|------------------------------------------||------------------------------------------||------------------------------------------||-2-2-2-2-2-2-2-2--------------------------||-0-0-0-0-0-0-0-0-3-3-3-3-3-3-5-5-5-5-5-5--||-----------------1-1-1-1-1-1-3-3-3-3-3-3--| Rpt 3 x
Intro lead enters at start of fade out END
Tap to rate this tab
 
# A B C D E F G H I J K L M N O P Q R S T U V W X Y Z