Island In The Sun chords with lyrics by Shwayze And Cisco - Easy chords and tabs for guitar

Shwayze And Cisco – Island In The Sun chords

Chords:
Transpose:
Island in the Sun – Shwayze & Cisco

INTRO 0.00

Said it a million times, I hate to see you cryin'
I'd give a million lives to see you smilin'
If it were you and I stuck on an island
I think I'd be smiling

---------------------------------------------|-----8-----10-----7-----5------8--7--5-------|--7-----7------7-----5-----5-------------7---| (x3)---------------------------------------------|---------------------------------------------|---------------------------------------------|
-----------------------------7---|-----8----10-----7---5---8-------|--7----7------7------5-----------| (x1)---------------------------------|---------------------------------|---------------------------------|
VERSE 1 0.19 Yo, if it were just you and I Play the best of Bob Marley, no woman no cry I make a guitar out of palm trees In case you crash-landed and you couldn't find your iPod Make a wish upon a starfish, kiss under the waterfall, coconut sidedish Like paradise lost, but now I'm found
---------------------------------------------|-----8-----10-----7-----5------8--7--5-------|--7-----7------7-----5-----5-------------7---| (x1)---------------------------------------------|---------------------------------------------|---------------------------------------------|
------------------------------7---|-----8----10-----7---5---8--------|--7----7------7------5------------| (x1)----------------------------------| ----------------------------------|----------------------------------|
--------------------------------------------|-----8-----10-----7-----5------8--7--5------|--7-----7------7-----5-----5------------7---| (x1)--------------------------------------------|--------------------------------------------|--------------------------------------------|
-----------------------------7---|-----8----10-----7---5---8-------|--7----7------7------5-----------| (x1)---------------------------------| ---------------------------------|---------------------------------|
PRE-CHORUS 0.39
G D Am Em Everytime you get a little bit closer you drift so far away
G D Am EmEverytime you get a little bit closer you leave me right here
G D Am EmEverytime you get a little bit closer you drift so far away
G D Am EmEverytime you get a little bit closer you leave me right here
CHORUS 0.58
G D AmLike an island in the sun, I'm waiting patiently
G D Am CWaiting for you, to land on me
G D AmLike an island in the sun, I guess I wait and see
G D Am CWaiting for you, to land on me
VERSE 2 1.18 Collecting seashells on the seafloor Smoke a lil' seaweed on the seashore Just me and you, we don't need more Except the sun and the stars and the wind and the mountains See I'm a real hippie kid so just the two us is something I could dig Building castles in the sky, building castles in the sky
---------------------------------------------|-----8-----10-----7-----5------8--7--5-------|--7-----7------7-----5-----5-------------7---| (x3)---------------------------------------------|---------------------------------------------|---------------------------------------------|
-----------------------------7---|-----8----10-----7---5---8-------|--7----7------7------5-----------| (x1)---------------------------------|---------------------------------|---------------------------------|
PRE-CHORUS 1.39
G D Am EmEverytime you get a little bit closer you drift so far away
G D Am EmEverytime you get a little bit closer you leave me right here
G D Am EmEverytime you get a little bit closer you drift and drift and drift
G D Am EmEverytime you get a little bit closer you leave me right here
CHORUS 1.57
G D AmLike an island in the sun, I'm waiting patiently
G D Am CWaiting for you, to land on me
G D AmLike an island in the sun, I guess I wait and see
G D Am CWaiting for you, to land on me
BRIDGE 2.16
Em G C DEverytime you get a little bit closer you drift so far away
Em G C DEverytime you get a little bit closer you drift so far away
Em G C DEverytime you get a little bit closer you drift so far away
Em G C DEverytime you get a little bit closer you leave me right here
PRE-CHORUS 2.36
G DJust steer the boat, but I dont know where to go
Am CMy compass is broke, lost the map a long time ago
G D Am Em Everytime you get a little bit closer you drift so far away
G D Am CAah oooh yeah
G D Am CBaby baby baby baby baby I'm a lonely one
CHORUS 2.56
G D AmLike an island in the sun, I'm waiting patiently
G D Am CWaiting for you, to land on me
G D AmLike an island in the sun, I guess I wait and see
G D Am CWaiting for you, to land on me
G D AmLike an island in the sun, I'm waiting patiently
G D Am CWaiting for you, to land on me
G D AmLike an island in the sun, I guess I wait and see
G D Am CWaiting for you, to land on me
(The times referred to in this tab link to: http://www.youtube.com/watch?v=Bl1eane8Nos)
Please rate this tab:
x1.0