Cancer tab with lyrics by Sick Puppies - Easy chords and tabs for guitar

Sick Puppies – Cancer tab

Band: Sick Puppies
Song: Cancer
Album: Dressed Up As Life
Tbd RZ psted NS

This is my favorite Sick Puppies song. Its awesome, but kinda fast at some points, so it 
some getting used to. I didnt tab the strumming for some of the chords, so just listin 
the song for the strumming rhythme. It shouldnt be too hard. Enjoy!

Tuning: Down 1/2 Step (D#G#C#F#A#D#)

Intro(The bass comes in first, then this....) x4--> F#5|------|-----------------------------------------|--------||------|-----------------------------------------|--------||------|-----------------------------------------|--------||------|-----------------------------------------|---44---||------|--------3------2------3------2-----------|---44---||--0---|----22-----22-----22-----22-----22-0-----|---22---|
Verse 1 (The guitar is played after Shim sings.)
x2--> F#5 X2|----------------------------------------|---------||----------------------------------------|---------||----------------------------------------|---------||----------------------------------------|----44---||--------3------2------3------2----------|----44---||----22-----22-----22-----22-----22-0----|----22---|
Verse 1 pt. 2 E5|---------------------------------------------------||---------------------------------------------------||---------------------------------------------------||---------------------------------------------------||-------3-----2-----2------3-----2------------------||----2-----2-----2--0---2-----2-----2-3~------------|
E5|---------------------------------------------------||---------------------------------------------------||---------------------------------------------------||-----------------------------------xxxx------------||-------3-----2-----2------3-----2--xxxx------------||----2-----2-----2--0---2-----2-----xxxx------------|
E5|---------------------------------------------------||---------------------------------------------------||---------------------------------------------------||---------------------------------------------------||-------3-----2-----2------3-----2------------------||----2-----2-----2--0---2-----2-----2-3~------------|
E5|---------------------------------------------------||---------------------------------------------------||---------------------------------------------------||---------------------------------------------------||-------3-----2-----2------3-----2------------------||----2-----2-----2--0---2-----2-----2---------------|
Chorus(I dont have the strumming for these chords, so listin to the song) D5/A E5/B F#m|---------------2--------|-----------------------------------------||---------------2--------|-----------------------------------------||----7----9-----2--------|-----------------------------------------||----7----9-----4--------|----7-6-7-6-7-9-7-6-7-6-7-6-7-6----------||----5----7-----4--------|--------------------------------9-7------||----5----7-----2--------|-----------------------------------------|
D5/A E5/B|-----------------||-----------------||----7----9-------||----7----9-------||----5----7-------||----5----7-------|
|------------------------------------------------------||------------------------------------------------------||------------------------------------------------------||------------------------------------------------------||------3----2----3----2---------3----2----3-3-3--------||---22---22---22---22---2222-22---22---22-------0------|
Verse 2
|--14-14-14-14-14-14-14---||-------------------------||-------------------------||-------------------------||-------------------------||-------------------------|
x2-->|-----------------------------------------|--------||-----------------------------------------|--------||-----------------------------------------|--------||-----------------------------------------|---44---||--------3------2------3------2-----------|---44---||----22-----22-----22-----22-----22-0-----|---22---|
|-----------------------------------------||-----------------------------------------||-----------------------------------------||-----------------------------------------||--------3------2------3------2-----------||----22-----22-----22-----22-----22-0-----|
Verse 2 pt. 2
E5|---------------------------------------------------||---------------------------------------------------||---------------------------------------------------||---------------------------------------------------||-------3-----2-----2------3-----2------------------||----2-----2-----2--0---2-----2-----2-3~------------|
E5|---------------------------------------------------||---------------------------------------------------||---------------------------------------------------||---------------------------------------------------||-------3-----2-----2------3-----2------------------||----2-----2-----2--0---2-----2-----2---------------|
Chorus 2
D5/A E5/B F#m|---------------2--------|-----------------------------------------||---------------2--------|-----------------------------------------||----7----9-----2--------|-----------------------------------------||----7----9-----4--------|----7-6-7-6-7-9-7-6-7-6-7-6-7-6----------||----5----7-----4--------|--------------------------------9-7------||----5----7-----2--------|-----------------------------------------|
D5/A E5/B|-----------------||-----------------||----7----9-------||----7----9-------||----5----7-------||----5----7-------|
Bridge
|--------------------------------------------------------------------||--------------------------------------------------------------------||---6666--7777--6666--4444--9999--11-11-11-11--9999--11-11-11-11-----||--------------------------------------------------------------------||---4444--5555--4444--2222--7777---9--9--9--9--7777---9--9--9--9-----||--------------------------------------------------------------------|
D5/A D5/A E5/B E5/B F#5/C# F#5/C#|----------------------------------------------------------||----------------------------------------------------------||---7-xxxx--7-xxxx--9-xxxx--9-xxxx--11-xxxx--11-xxxx-------||---7-xxxx--7-xxxx--9-xxxx--9-xxxx--11-xxxx--11-xxxx-------||---5-xxxx--5-xxxx--7-xxxx--7-xxxx---9-xxxx--9--xxxx-------||---5-xxxx--5-xxxx--7-xxxx--7-xxxx---9-xxxx--9--xxxx-------|
x10|---------------------------|-------------||---------------------------|-------------||---------------------------|-------------||----7-6-7-6-7-9-7-6--------|----7~--6~---||---------------------------|-------------||---------------------------|-------------|
|-------------------------------------------------------||-------------------------------------------------------||-------------------------------------------------------||-------------------------------------------------------||------3----2----3----2---------3----2----3----2--------||---22---22---22---22---220--22---22---22---22---220----|
-|-----------------------------------------------------||-----------------------------------------------------||-----------------------------------------------------||-----------------------------------------------------||------3----2----3----2---------3----2----3-3-3-------||---22---22---22---22---220--22---22---22-------0-----|
|------------------------------------------------------||------------------------------------------------------||------------------------------------------------------||------------------------------------------------------||------3----2----3----2---------3----2----3---2--------||---22---22---22---22---223--22---22---22---22--223----|
|-----------------------------------------------------||-----------------------------------------------------||-----------------------------------------------------||-----------------------------------------------------||------3----2----3----2---------3---2-----------------||---22---22---22---22---223--22--22---22-2-3----------|
Outro
D5/A E5/B F#5/C#|-----------------------------||-----------------------------||----7----9---11--------14----||----7----9---11--------14----||----5----7---9---------12----||----5----7---9---------12----|
D5/A D5/A E5/B E5/B|----------------------------------------||----------------------------------------||---7-xxxx--7-xxxx--9-xxxx--9-xxxx---11--||---7-xxxx--7-xxxx--9-xxxx--9-xxxx---11--||---5-xxxx--5-xxxx--7-xxxx--7-xxxx---9---||---5-xxxx--5-xxxx--7-xxxx--7-xxxx---9---|
Well, there you have it. Please rate and comment on tab. Thanks!
Please rate this tab:
x1.0