Issues tab with lyrics by Sick Puppies - Easy chords and tabs for guitar

Sick Puppies – Issues tab

Song Title: Issues
Artist: Sick Puppies
Tabber: Max Deuble (www.myspace.com/maxpd)

Another good song off Sick Puppies album Dressed Up As Life. The 

ending has some feedback and wah pedal effects, hence quite 

difficult to tab out. Any comments, suggestions please email me at 

d__o__a@hotmail.com


Gtr I (C G C F A D) - 'Untitled'
Gtr II (C G C F A D) - 'Untitled'

Q=90 4/4 Gtr I|---------------------|-------------------------||---------------------|-------------------------||---------------------|-------------------------||-4-4-x-x-x-4-4-x-x-x-|-10-10-x-x-x-10-10-x-x-x-||-4-4-x-x-x-4-4-x-x-x-|-10-10-x-x-x-10-10-x-x-x-||-4-4-x-x-x-4-4-x-x-x-|-10-10-x-x-x-10-10-x-x-x-|
|---------------------|-------------------||---------------------|-------------------||---------------------|-------------------||-4-4-x-x-x-4-4-x-x-x-|-2-2-x-x-x-2-2-x-0-||-4-4-x-x-x-4-4-x-x-x-|-2-2-x-x-x-2-2-x-0-||-4-4-x-x-x-4-4-x-x-x-|-2-2-x-x-x-2-2-x-0-|
|-------------|-----------------||-------------|-----------------||-------------|-----------------||-4-4---4-4---|-10-10---10-10---||-4-4---4-4---|-10-10---10-10---||-4-4---4-4---|-10-10---10-10---|
|-------------|---------------||-------------|---------------||-------------|---------------||-4-4---4-4---|-2-2---2-2-x-0-||-4-4---4-4---|-2-2---2-2-x-0-||-4-4---4-4---|-2-2---2-2-x-0-|
|---------------------|-------------------------||---------------------|-------------------------||---------------------|-------------------------||-4-4-x-x-x-4-4-x-x-x-|-10-10-x-x-x-10-10-x-x-x-||-4-4-x-x-x-4-4-x-x-x-|-10-10-x-x-x-10-10-x-x-x-||-4-4-x-x-x-4-4-x-x-x-|-10-10-x-x-x-10-10-x-x-x-|
|---------------------|---------------------||---------------------|---------------------||---------------------|---------------------||-4-4-x-x-x-4-4-x-x-x-|-2-2-x-x-x-2-2-x-x-x-||-4-4-x-x-x-4-4-x-x-x-|-2-2-x-x-x-2-2-x-x-x-||-4-4-x-x-x-4-4-x-x-x-|-2-2-x-x-x-2-2-x-x-x-|
|---------------------------------|-----------------------------------||---------------------------------|-----------------------------------||---------------------------------|-----------------------------------||-0-------------------------------|-(0)-------------------------------||-0-------------------------------|-(0)-------------------------------||-0-------------------------------|-(0)-------------------------------|
|
| Gtr II|---------------------------------|-----------------------------------||---------------------------------|-----------------------------------||---------------------------------|-----------------------------------||-4-0-0-4-0-0-6-0-0-6-0-0-6-0-6-0-|--7--0-0-7-0-0-9-0-0-9-0-0-9-0-9-0-||---------------------------------|-----------------------------------||---------------------------------|-----------------------------------|
|---------------------------------|-----------------------------------||---------------------------------|-----------------------------------||---------------------------------|-----------------------------------||-4-------------------------------|-(4)-------------------------------||-4-------------------------------|-(4)-------------------------------||-4-------------------------------|-(4)-------------------------------|
|
|---------------------------------|-----------------------------------||---------------------------------|-----------------------------------||---------------------------------|-----------------------------------||-4-0-0-4-0-0-6-0-0-6-0-0-6-0-6-0-|--7--0-0-7-0-0-9-0-0-9-0-0-9-0-9-0-||---------------------------------|-----------------------------------||---------------------------------|-----------------------------------|
|---------------------------------|-----------------------------------||---------------------------------|-----------------------------------||---------------------------------|-----------------------------------||-0-------------------------------|-(0)-------------------------------||-0-------------------------------|-(0)-------------------------------||-0-------------------------------|-(0)-------------------------------|
|
|---------------------------------|-----------------------------------||---------------------------------|-----------------------------------||---------------------------------|-----------------------------------||-4-0-0-4-0-0-6-0-0-6-0-0-6-0-6-0-|--7--0-0-7-0-0-9-0-0-9-0-0-9-0-9-0-||---------------------------------|-----------------------------------||---------------------------------|-----------------------------------|
Gtr I|-------------------------|--------------------------||-------------------------|--------------------------||-------------------------|--------------------------||-4-4---------2-2---------|-0-0---------5-5----------||-4-4---------2-2---------|-0-0---------5-5----------||-4-4---------2-2---------|-0-0---------5-5----------|
|
| Gtr II|-------------------------|--------------------------||-------------------------|--------------------------||-----12pb13r=====12pb13r=|=====12pb13r=====11pb12r==||-------------------------|--------------------------||-------------------------|--------------------------||-------------------------|--------------------------|
|-------------------------|-------------------------||-------------------------|-------------------------||-------------------------|-------------------------||-4-4---------2-2---------|-0-0-------------5-----5-||-4-4---------2-2---------|-0-0---------x-x-5-x-x-5-||-4-4---------2-2---------|-0-0---------x-x-5-x-x-5-|
|
|-------------------------|-------------------------||-------------------------|-------------------------||-----12pb13r=====12pb13r=|=====12pb13r=============||-------------------------|-------------------------||-------------------------|-------------------------||-------------------------|-------------------------|
|-------------|--------------------||-------------|--------------------||-------------|--------------------||-4-4---2-2---|-0-0---5-5----------||-4-4---2-2---|-0-0---5-5----------||-4-4---2-2---|-0-0---5-5----------|
|
|-------------|--------------------||-------------|--------------------||-------------|-----------11pb12r==||-------------|--------------------||-------------|--------------------||-------------|--------------------|
Gtr I|---------------------------------|-----------------------------------||---------------------------------|-----------------------------------||---------------------------------|-----------------------------------||-0-------------------------------|-(0)-------------------------------||-0-------------------------------|-(0)-------------------------------||-0-------------------------------|-(0)-------------------------------|
|
| Gtr II|---------------------------------|-----------------------------------||---------------------------------|-----------------------------------||---------------------------------|-----------------------------------||-4-0-0-4-0-0-6-0-0-6-0-0-6-0-6-0-|--7--0-0-7-0-0-9-0-0-9-0-0-9-0-9-0-||---------------------------------|-----------------------------------||---------------------------------|-----------------------------------|
Gtr I||----------------------|-------------------------|||o---------------------|-------------------------|||----------------------|-------------------------|||--4-4-x-x-x-4-4-x-x-x-|-10-10-x-x-x-10-10-x-x-x-|||o-4-4-x-x-x-4-4-x-x-x-|-10-10-x-x-x-10-10-x-x-x-|||--4-4-x-x-x-4-4-x-x-x-|-10-10-x-x-x-10-10-x-x-x-|
|---------------------|--------------------|||---------------------|-------------------o|||---------------------|--------------------|||-4-4-x-x-x-4-4-x-x-x-|-2-2-x-x-x-2-2-x-0--|||-4-4-x-x-x-4-4-x-x-x-|-2-2-x-x-x-2-2-x-0-o|||-4-4-x-x-x-4-4-x-x-x-|-2-2-x-x-x-2-2-x-0--||
|---------------------------------|-----------------------------------||---------------------------------|-----------------------------------||---------------------------------|-----------------------------------||-0-------------------------------|-(0)-------------------------------||-0-------------------------------|-(0)-------------------------------||-0-------------------------------|-(0)-------------------------------|
|
| Gtr II|---------------------------------|-----------------------------------||---------------------------------|-----------------------------------||---------------------------------|-----------------------------------||-4-0-0-4-0-0-6-0-0-6-0-0-6-0-6-0-|--7--0-0-7-0-0-9-0-0-9-0-0-9-0-9-0-||---------------------------------|-----------------------------------||---------------------------------|-----------------------------------|
|---------------------------------|-----------------------------------||---------------------------------|-----------------------------------||---------------------------------|-----------------------------------||-4-------------------------------|-(4)-------------------------------||-4-------------------------------|-(4)-------------------------------||-4-------------------------------|-(4)-------------------------------|
|
|---------------------------------|-----------------------------------||---------------------------------|-----------------------------------||---------------------------------|-----------------------------------||-4-0-0-4-0-0-6-0-0-6-0-0-6-0-6-0-|--7--0-0-7-0-0-9-0-0-9-0-0-9-0-9-0-||---------------------------------|-----------------------------------||---------------------------------|-----------------------------------|
|---------------------------------|-----------------------------------||---------------------------------|-----------------------------------||---------------------------------|-----------------------------------||-0-------------------------------|-(0)-------------------------------||-0-------------------------------|-(0)-------------------------------||-0-------------------------------|-(0)-------------------------------|
|
|---------------------------------|-----------------------------------||---------------------------------|-----------------------------------||---------------------------------|-----------------------------------||-4-0-0-4-0-0-6-0-0-6-0-0-6-0-6-0-|--7--0-0-7-0-0-9-0-0-9-0-0-9-0-9-0-||---------------------------------|-----------------------------------||---------------------------------|-----------------------------------|
Gtr I|-------------------------|--------------------------||-------------------------|--------------------------||-------------------------|--------------------------||-4-4---------2-2---------|-0-0---------5-5----------||-4-4---------2-2---------|-0-0---------5-5----------||-4-4---------2-2---------|-0-0---------5-5----------|
|
| Gtr II|-------------------------|--------------------------||-------------------------|--------------------------||-----12pb13r=====12pb13r=|=====12pb13r=====11pb12r==||-------------------------|--------------------------||-------------------------|--------------------------||-------------------------|--------------------------|
|-------------------------|-------------------------||-------------------------|-------------------------||-------------------------|-------------------------||-4-4---------2-2---------|-0-0-------------5-----5-||-4-4---------2-2---------|-0-0---------x-x-5-x-x-5-||-4-4---------2-2---------|-0-0---------x-x-5-x-x-5-|
|
|-------------------------|-------------------------||-------------------------|-------------------------||-----12pb13r=====12pb13r=|=====12pb13r=============||-------------------------|-------------------------||-------------------------|-------------------------||-------------------------|-------------------------|
|-------------|--------------------||-------------|--------------------||-------------|--------------------||-4-4---2-2---|-0-0---5-5----------||-4-4---2-2---|-0-0---5-5----------||-4-4---2-2---|-0-0---5-5----------|
|
|-------------|--------------------||-------------|--------------------||-------------|-----------11pb12r==||-------------|--------------------||-------------|--------------------||-------------|--------------------|
|---------------------------------|-----------------------------------||---------------------------------|-----------------------------------||---------------------------------|-----------------------------------||-0-------------------------------|-(0)-------------------------------||-0-------------------------------|-(0)-------------------------------||-0-------------------------------|-(0)-------------------------------|
|
|---------------------------------|-----------------------------------||---------------------------------|-----------------------------------||---------------------------------|-----------------------------------||-4-0-0-4-0-0-6-0-0-6-0-0-6-0-6-0-|--7--0-0-7-0-0-9-0-0-9-0-0-9-0-9-0-||---------------------------------|-----------------------------------||---------------------------------|-----------------------------------|
|---------------------------------|-----------------------------------||---------------------------------|-----------------------------------||---------------------------------|-----------------------------------||-4-------------------------------|-(4)-------------------------------||-4-------------------------------|-(4)-------------------------------||-4-------------------------------|-(4)-------------------------------|
|
|---------------------------------|-----------------------------------||---------------------------------|-----------------------------------||---------------------------------|-----------------------------------||-4-0-0-4-0-0-6-0-0-6-0-0-6-0-6-0-|--7--0-0-7-0-0-9-0-0-9-0-0-9-0-9-0-||---------------------------------|-----------------------------------||---------------------------------|-----------------------------------|
Gtr I|---------------------------------|-----------------------------------||---------------------------------|-----------------------------------||---------------------------------|-----------------------------------||-0-------------------------------|-(0)-------------------------------||-0-------------------------------|-(0)-------------------------------||-0-------------------------------|-(0)-------------------------------|
|
| Gtr II|---------------------------------|-----------------------------------||---------------------------------|-----------------------------------||---------------------------------|----------------------------------||-4-0-0-4-0-0-6-0-0-6-0-0-6-0-6-0-|--7--0-0-7-0-0-9-0-0-9-0-0-9-0-9-0-||---------------------------------|-----------------------------------||---------------------------------|-----------------------------------|
|---------------------------------|-----------------------------------||---------------------------------|-----------------------------------||---------------------------------|-----------------------------------||-4-------------------------------|-(4)-------------------------------||-4-------------------------------|-(4)-------------------------------||-4-------------------------------|-(4)-------------------------------|
|
|---------------------------------|-----------------------------------||---------------------------------|-----------------------------------||---------------------------------|-----------------------------------||-4-0-0-4-0-0-6-0-0-6-0-0-6-0-6-0-|--7--0-0-7-0-0-9-0-0-9-0-0-9-0-9-0-||---------------------------------|-----------------------------------||---------------------------------|-----------------------------------|
|---------------------------------|-----------------------------------||---------------------------------|-----------------------------------||---------------------------------|-----------------------------------||-0-------------------------------|-(0)-------------------------------||-0-------------------------------|-(0)-------------------------------||-0-------------------------------|-(0)-------------------------------|
|
|---------------------------------|-----------------------------------||---------------------------------|-----------------------------------||---------------------------------|-----------------------------------||-4-0-0-4-0-0-6-0-0-6-0-0-6-0-6-0-|--7--0-0-7-0-0-9-0-0-9-0-0-9-0-9-0-||---------------------------------|-----------------------------------||---------------------------------|-----------------------------------|
Gtr I|---------------------------------||---------------------------------||---------------------------------||-4-4-4-4-4-4-4-4-4-4-4-4-4-4-4-4-||-4-4-4-4-4-4-4-4-4-4-4-4-4-4-4-4-||-4-4-4-4-4-4-4-4-4-4-4-4-4-4-4-4-|
|
|---------------------------------||---------------------------------||---------------------------------||---------------------------------||---------------------------------||---------------------------------|
|-------------------------------------------------||-------------------------------------------------||-------------------------------------------------||-10-10-10-10-10-10-10-10-10-10-10-10-10-10-10-10-||-10-10-10-10-10-10-10-10-10-10-10-10-10-10-10-10-||-10-10-10-10-10-10-10-10-10-10-10-10-10-10-10-10-|
|
|-------------------------------------------------||-------------------------------------------------||--------------------------9--9--9--9--9--9--9--9-||--------------------------x--x--x--x--x--x--x--x-||--------------------------7--7--7--7--7--7--7--7-||-------------------------------------------------|
|---------------------------------||---------------------------------||---------------------------------||-4-4-4-4-4-4-4-4-4-4-4-4-4-4-4-4-||-4-4-4-4-4-4-4-4-4-4-4-4-4-4-4-4-||-4-4-4-4-4-4-4-4-4-4-4-4-4-4-4-4-|
|---------------------------------------------||---------------------------------------------||---------------------------------------------||-10-10-10-10-10-10-10-10-10-10-10-10-x-x-x-x-||-10-10-10-10-10-10-10-10-10-10-10-10-x-x-x-x-||-10-10-10-10-10-10-10-10-10-10-10-10-x-x-x-x-|
Gtr I|-------------------------|--------------------------||-------------------------|--------------------------||-------------------------|--------------------------||-4-4---------2-2---------|-0-0---------5-5----------||-4-4---------2-2---------|-0-0---------5-5----------||-4-4---------2-2---------|-0-0---------5-5----------|
|
| Gtr II|-------------------------|--------------------------||-------------------------|--------------------------||-----12pb13r=====12pb13r=|=====12pb13r=====11pb12r==||-------------------------|--------------------------||-------------------------|--------------------------||-------------------------|--------------------------|
|-------------------------|-------------------------||-------------------------|-------------------------||-------------------------|-------------------------||-4-4---------2-2---------|-0-0-------------5-----5-||-4-4---------2-2---------|-0-0---------x-x-5-x-x-5-||-4-4---------2-2---------|-0-0---------x-x-5-x-x-5-|
|
|-------------------------|-------------------------||-------------------------|-------------------------||-----12pb13r=====12pb13r=|=====12pb13r=============||-------------------------|-------------------------||-------------------------|-------------------------||-------------------------|-------------------------|
|-------------|--------------------||-------------|--------------------||-------------|--------------------||-4-4---2-2---|-0-0---5-5----------||-4-4---2-2---|-0-0---5-5----------||-4-4---2-2---|-0-0---5-5----------|
|
|-------------|--------------------||-------------|--------------------||-------------|-----------11pb12r==||-------------|--------------------||-------------|--------------------||-------------|--------------------|
Gtr I||----------------------------------|||o---------------------------------|||----------------------------------|||--4-4-4-4-4-4-4-4-4-4-4-4-4-4-4-4-|||o-4-4-4-4-4-4-4-4-4-4-4-4-4-4-4-4-|||--4-4-4-4-4-4-4-4-4-4-4-4-4-4-4-4-|
|---------------------------------------------------|||--------------------------------------------------o|||---------------------------------------------------|||-10-10-10-10-10-10-10-10-10-10-10-10-10-10-10-10---|||-10-10-10-10-10-10-10-10-10-10-10-10-10-10-10-10--o|||-10-10-10-10-10-10-10-10-10-10-10-10-10-10-10-10---||
Gtr I||--------------------------------------------------|||o-------------------------------------------------|||--------------------------------------------------|||---4--4--4--4--4--4--4--4--4--4--4--4--4--4--4--4-|||o--4--4--4--4--4--4--4--4--4--4--4--4--4--4--4--4-|||---4--4--4--4--4--4--4--4--4--4--4--4--4--4--4--4-|
|
| Gtr II||--------------------------------------------------|||o-------------------------------------------------|||--11-11-11-11-11-11-11-11-11-11-11-11-11-11-11-11-|||---x--x--x--x--x--x--x--x--x--x--x--x--x--x--x--x-|||o--9--9--9--9--9--9--9--9--9--9--9--9--9--9--9--9-|||--------------------------------------------------|
|---------------------------------------------------|||--------------------------------------------------o|||---------------------------------------------------|||-10-10-10-10-10-10-10-10-10-10-10-10-10-10-10-10---|||-10-10-10-10-10-10-10-10-10-10-10-10-10-10-10-10--o|||-10-10-10-10-10-10-10-10-10-10-10-10-10-10-10-10---||
|
|---------------------------------------------------|||--------------------------------------------------o|||--9--9--9--9--9--9--9--9--9--9--9--9--9--9--9--9---|||--x--x--x--x--x--x--x--x--x--x--x--x--x--x--x--x---|||--7--7--7--7--7--7--7--7--7--7--7--7--7--7--7--7--o|||---------------------------------------------------||
Gtr I||----------------------------------|||o---------------------------------|||----------------------------------|||--4-4-4-4-4-4-4-4-4-4-4-4-4-4-4-4-|||o-4-4-4-4-4-4-4-4-4-4-4-4-4-4-4-4-|||--4-4-4-4-4-4-4-4-4-4-4-4-4-4-4-4-|
6x|---------------------------------------------------|||--------------------------------------------------o|||---------------------------------------------------|||-10-10-10-10-10-10-10-10-10-10-10-10-10-10-10-10---|||-10-10-10-10-10-10-10-10-10-10-10-10-10-10-10-10--o|||-10-10-10-10-10-10-10-10-10-10-10-10-10-10-10-10---||
Please rate this tab:
x1.0