Still Dreaming tab with lyrics by Silverstein - Easy chords and tabs for guitar

Silverstein – Still Dreaming tab

-------------------------------------------------------------------------------
			     Still Dreaming - Silverstein
-------------------------------------------------------------------------------
Album: Arrivals and Departures (2007)
Tabbed by: Guitar4life1210
Email:

Tuning: Drop D

K so all the other tabs were wrong so I'm doing it myself.
This is my first tab ever but I think it's pretty close.
Leave comments and suggestions if you think something is different.

Layout: Guitar I and then Guitar II

GUITAR I

Intro [x4]

|--------------------------------------------------------------------------------------------||--------------------------------------------------------------------------------------------||-8--8--8--8--8--8--8--8---8-8-8-8-8-8-8-8---8--8--8--12-12-10-10-8-8--8--8--12-12-10-10-8-8-||-12-12-12-12-12-12-12-8---8-8-8-8-8-8-8-8---10-10-10-13-13-13-13-8-10-10-10-13-13-13-13-8-8-||--------------------------------------------------------------------------------------------||--------------------------------------------------------------------------------------------|
Verse I
|---|------------------------------------------------------------------||---|------------------------------------------------------------------||-5-|.-5-5-5-5-5-5-5-5-5-5-5-3-3-3-3-----------------------------------||-5-|.-5-5-5-5-5-5-5-5-5-5-5-3-3-3-3-6--6--6-6-6-6-6-6-6-6-6-6-6-6-6-6-||-3-|--3-3-3-3-3-3-3-3-3-3-3-1-1-1-1-10-10-6-6-6-6-6-6-6-6-6-6-6-8-8-8-||---|--------------------------------6--6--6-6-6-6-6-6-6-6-6-6-6-6-6-6-| . . . . . . . . . . . . . . . . . . . . . . . . . . . . . . . .
|-----------------------------------------------------------------|----||-----------------------------------------------------------------|----||-----------------------------------------------------------3-3-3-|-5-.||-1-1-3-3-3-3-3-3-3-3-3-3-3-3-3-3-1-1-1-1-1-1-1-1-1-1-1-1-1-x-x-x-|-x-.||-1-1-3-3-3-3-3-3-3-3-3-3-3-3-3-3-1-1-1-1-1-1-1-1-1-1-1-1-1-1-1-1-|-3--||-1-1-3-3-3-3-3-3-3-3-3-3-3-3-3-3-1-1-1-1-1-1-1-1-1-1-1-1-1-------|----| [x2] . . . . . . . . . . . . . . . . . . . . . . . . . . . . .
|-----------------------------------------------------------------||-----------------------------------------------------------------||-5-5-5-5-5-5-5-5-5-5-5-3-3-3-3-----------------------------------||-5-5-5-5-5-5-5-5-5-5-5-3-3-3-3-6--6--6-6-6-6-6-6-6-6-6-6-6-6-6-6-||-3-3-3-3-3-3-3-3-3-3-3-1-1-1-1-10-10-6-6-6-6-6-6-6-6-6-6-6-8-8-8-||-------------------------------6--6--6-6-6-6-6-6-6-6-6-6-6-6-6-6-| . . . . . . . . . . . . . . . . . . . . . . . . . . . . . . .
|------------------------------------------------------------------||------------------------------------------------------------------||------------------------------------------------------------------||-1-1-3-3-3-3-3-3-3-3-3-3-3-3-3-3-1-1-1-1-1-1-1-1-1-1-1-1-1-1-1-1--||-1-1-3-3-3-3-3-3-3-3-3-3-3-3-3-3-1-1-1-1-1-1-1-1-1-1-1-1-1-1-1-1--||-1-1-3-3-3-3-3-3-3-3-3-3-3-3-3-3-1-1-1-1-1-1-1-1-1-1-1-1-1-1-1-1--| . . . . . . . . . . . . . . . . . . . . . . . . . . Come out of PM
|-------------------------||-------------------------||-------------------------||-6~-------6~--//////////-||-6~---8-6-6~--//////////-||-6~-----------//////////-| [x1]
Chorus
|--------------------------------------------------------------------------------------------||--------------------------------------------------------------------------------------------||-8--8--8--8--8--8--8--8---8-8-8-8-8-8-8-8---8--8--8--12-12-10-10-8-8--8--8--12-12-10-10-8-8-||-12-12-12-12-12-12-12-8---8-8-8-8-8-8-8-8---10-10-10-13-13-13-13-8-10-10-10-13-13-13-13-8-8-||--------------------------------------------------------------------------------------------||---------------------------------------------------------------------------------------[x2]-|
|------------------------------------------------------------------------------------------------||------------------------------------------------------------------------------------------------||-------------------------------------15-15-15-15-12-12-12-12-12-12-12-12-10-10-10-10-10-8-8-8-8-||-13-13-13-13-13-13-13-13-12-12-12-12------------------------------------------------------------||------------------------------------------------------------------------------------------------||------------------------------------------------------------------------------------------------|
|--------------------------------------------------------------||--------------------------------------------------------------| Not sure|-8-8-8-7-7-7-8-8-8-7-7-7-7-8-7-5-5-5-5-5-5-5-5-5-5-5-5-5-5-5-5| about this|--------------------------------------------------------------| part.|--------------------------------------------------------------| |--------------------------------------------------------------| [x1]
Verse II
|------------------------------------------------------------------||------------------------------------------------------------------||--5-5-5-5-5-5-5-5-5-5-5-3-3-3-3-----------------------------------||--5-5-5-5-5-5-5-5-5-5-5-3-3-3-3-6--6--6-6-6-6-6-6-6-6-6-6-6-6-6-6-||--3-3-3-3-3-3-3-3-3-3-3-1-1-1-1-10-10-6-6-6-6-6-6-6-6-6-6-6-8-8-8-||--------------------------------6--6--6-6-6-6-6-6-6-6-6-6-6-6-6-6-| . . . . . . . . . . . . . . . . . . . . . . . . . . . . . . .
|-----------------------------------------------------------------||-----------------------------------------------------------------||-----------------------------------------------------------3-3-3-||-1-1-3-3-3-3-3-3-3-3-3-3-3-3-3-3-1-1-1-1-1-1-1-1-1-1-1-1-1-x-x-x-||-1-1-3-3-3-3-3-3-3-3-3-3-3-3-3-3-1-1-1-1-1-1-1-1-1-1-1-1-1-1-1-1-||-1-1-3-3-3-3-3-3-3-3-3-3-3-3-3-3-1-1-1-1-1-1-1-1-1-1-1-1-1-------| [x1] . . . . . . . . . . . . . . . . . . . . . . . . . . . . .
|-----------------------------------------------------------------||-----------------------------------------------------------------||-5-5-5-5-5-5-5-5-5-5-5-3-3-3-3-----------------------------------||-x-5-5-5-5-5-5-5-5-5-5-3-3-3-3-6--6--6-6-6-6-6-6-6-6-6-6-6-6-6-6-||-3-3-3-3-3-3-3-3-3-3-3-1-1-1-1-10-10-6-6-6-6-6-6-6-6-6-6-6-8-8-8-||-------------------------------6--6--6-6-6-6-6-6-6-6-6-6-6-6-6-6-| . . . . . . . . . . . . . . . . . . . . . . . . . . . . . .
|------------------------------------------------------------------||------------------------------------------------------------------||------------------------------------------------------------------||-1-1-3-3-3-3-3-3-3-3-3-3-3-3-3-3-1-1-1-1-1-1-1-1-1-1-1-1-1-1-1-1--||-1-1-3-3-3-3-3-3-3-3-3-3-3-3-3-3-1-1-1-1-1-1-1-1-1-1-1-1-1-1-1-1--||-1-1-3-3-3-3-3-3-3-3-3-3-3-3-3-3-1-1-1-1-1-1-1-1-1-1-1-1-1-1-1-1--| . . . . . . . . . . . . . . . . . . . . . . . . . . Come out of PM
|-------------------------||-------------------------||-------------------------||-6~-------6~--//////////-||-6~---8-6-6~--//////////-||-6~-----------//////////-| [x1]
Chorus
|--------------------------------------------------------------------------------------------||--------------------------------------------------------------------------------------------||-8--8--8--8--8--8--8--8---8-8-8-8-8-8-8-8---8--8--8--12-12-10-10-8-8--8--8--12-12-10-10-8-8-||-12-12-12-12-12-12-12-8---8-8-8-8-8-8-8-8---10-10-10-13-13-13-13-8-10-10-10-13-13-13-13-8-8-||--------------------------------------------------------------------------------------------||---------------------------------------------------------------------------------------[x2]-|
|------------------------------------------------------------------------------------------------||------------------------------------------------------------------------------------------------||-------------------------------------15-15-15-15-12-12-12-12-12-12-12-12-10-10-10-10-10-8-8-8-8-||-13-13-13-13-13-13-13-13-12-12-12-12------------------------------------------------------------||------------------------------------------------------------------------------------------------||------------------------------------------------------------------------------------------------|
|--------------------------------------------------------------||--------------------------------------------------------------| Not sure|-8-8-8-7-7-7-8-8-8-7-7-7-7-8-7-5-5-5-5-5-5-5-5-5-5-5-5-5-5-5-5| about this|--------------------------------------------------------------| part.|--------------------------------------------------------------| |--------------------------------------------------------------| [x1]
Bridge
|---------------------------------------------||---------------------------------------------||---------------------------------------------||---------------------------------------------||----10-8~-------------------10-8~------------||-10---------6-8-5/6-8-5---10---------6-8-5^~-| [x2]
|-----------------------------------------------------------------||-----------------------------------------------------------------||-----------------3-3-3-3-3-3-3-3-5-5-5-5-5-5-5-5-7-7-7-7-7-7-7-7-||-6-6-6-6-6-6-6-6-x-x-x-x-x-x-x-x-x-x-x-x-x-x-x-x-x-x-x-x-x-x-x-x-||-x-x-x-x-x-x-x-x-1-1-1-1-1-1-1-1-3-3-3-3-3-3-3-3-5-5-5-5-5-5-5-5-||-6-6-6-6-6-6-6-6-------------------------------------------------|
|-----------------------------------------------------------------------------------------||-----------------------------------------------------------------------------------------||-8-8-8-8-8-8-8-8-10-10-10-10-10-10-10-10-12-12-12-12-12-12-12-12-12-12-12-12-12-12-12-12-||-x-x-x-x-x-x-x-x-x--x--x--x--x--x--x--x--x--x--x--x--x--x--x--x--x--x--x--x--x--x--x--x--||-6-6-6-6-6-6-6-6-8--8--8--8--8--8--8--8--10-10-10-10-10-10-10-10-10-10-10-10-10-10-10-10-||-----------------------------------------------------------------------------------------|
|---------------------------------||---------------------------------||---------------------------------||-5-5-5-3-3-3-5-5-5-3-3-3-x-x-x-x-||-3-3-3-1-1-1-3-3-3-1-1-1-x-x-x-x-||-------------------------x-x-x-x-| [x1]
Chorus
|--------------------------------------------------------------------------------------------||--------------------------------------------------------------------------------------------||-8--8--8--8--8--8--8--8---8-8-8-8-8-8-8-8---8--8--8--12-12-10-10-8-8--8--8--12-12-10-10-8-8-||-12-12-12-12-12-12-12-8---8-8-8-8-8-8-8-8---10-10-10-13-13-13-13-8-10-10-10-13-13-13-13-8-8-||--------------------------------------------------------------------------------------------||---------------------------------------------------------------------------------------[x2]-|
|------------------------------------------------------------------------------------------------||------------------------------------------------------------------------------------------------||-------------------------------------15-15-15-15-12-12-12-12-12-12-12-12-10-10-10-10-10-8-8-8-8-||-13-13-13-13-13-13-13-13-12-12-12-12------------------------------------------------------------||------------------------------------------------------------------------------------------------||------------------------------------------------------------------------------------------------|
|--------------------------------------------------------------||--------------------------------------------------------------| Not sure|-8-8-8-7-7-7-8-8-8-7-7-7-7-8-7-5-5-5-5-5-5-5-5-5-5-5-5-5-5-5-5| about this|--------------------------------------------------------------| part.|--------------------------------------------------------------| |--------------------------------------------------------------| [x1]
Outro
|---------------------------------------------------------------||---------------------------------------------------------------||-7-7-7-7-7-7-7-7-8-8-8-8-7-7---5-5-5-5-5-5-5-5-5-5-5-5-5-5-5-5-||-----------------------------8---------------------------------||---------------------------------------------------------------| [x2]
|------------------------------------------------------------------------------------------------||------------------------------------------------------------------------------------------------||-------------------------------------15-15-15-15-12-12-12-12-12-12-12-12-10-10-10-10-10-8-8-8-8-||-13-13-13-13-13-13-13-13-12-12-12-12------------------------------------------------------------||------------------------------------------------------------------------------------------------||------------------------------------------------------------------------------------------------|
|-------------------------------------||-------------------------------------||-8-8-8-7-7-7-8-8-8-7-7-7-7-8-7-5~~~~~||-------------------------------------||-------------------------------------| |-------------------------------------| [x1]
GUITAR II Intro Wait for Guitar I to play Intro Riff once then:
|----------------------------||-16----18-------------------||----15----------------------| May be harmonics but I cant figure it out.|----------/////////////////-||----------/////////////////-||----------/////////////////-| [x1]
|--------------------------------|-------||--------------------------------|-------||-5-5-555-3-3-353----------------|-------||-5-5-555-1-1-131-6-66-6--6-66-6-|-8-8-8-||-3-3-333-1-1-131-6-66-6--6-66-6-|-8-8-8-||-----------------6-66-6--6-66-6-|-8-8-8-| [x2] 8's the second time only.
Verse I
|---|------------------------------------------------------------------||---|------------------------------------------------------------------||-5-|.-5-5-5-5-5-5-5-5-5-5-5-3-3-3-3-----------------------------------||-5-|.-5-5-5-5-5-5-5-5-5-5-5-3-3-3-3-6--6--6-6-6-6-6-6-6-6-6-6-6-6-6-6-||-3-|--3-3-3-3-3-3-3-3-3-3-3-1-1-1-1-10-10-6-6-6-6-6-6-6-6-6-6-6-8-8-8-||---|--------------------------------6--6--6-6-6-6-6-6-6-6-6-6-6-6-6-6-| . . . . . . . . . . . . . . . . . . . . . . . . . . . . . . . .
|-----------------------------------------------------------------|----||-----------------------------------------------------------------|----||-----------------------------------------------------------3-3-3-|-5-.||-1-1-3-3-3-3-3-3-3-3-3-3-3-3-3-3-1-1-1-1-1-1-1-1-1-1-1-1-1-x-x-x-|-x-.||-1-1-3-3-3-3-3-3-3-3-3-3-3-3-3-3-1-1-1-1-1-1-1-1-1-1-1-1-1-1-1-1-|-3--||-1-1-3-3-3-3-3-3-3-3-3-3-3-3-3-3-1-1-1-1-1-1-1-1-1-1-1-1-1-------|----| [x2] . . . . . . . . . . . . . . . . . . . . . . . . . . . . .
|-----------------------------------------------------------------||-----------------------------------------------------------------||-5-5-5-5-5-5-5-5-5-5-5-3-3-3-3-----------------------------------||-5-5-5-5-5-5-5-5-5-5-5-3-3-3-3-6--6--6-6-6-6-6-6-6-6-6-6-6-6-6-6-||-3-3-3-3-3-3-3-3-3-3-3-1-1-1-1-10-10-6-6-6-6-6-6-6-6-6-6-6-8-8-8-||-------------------------------6--6--6-6-6-6-6-6-6-6-6-6-6-6-6-6-| . . . . . . . . . . . . . . . . . . . . . . . . . . . . . . .
|------------------------------------------------------------------||------------------------------------------------------------------||------------------------------------------------------------------||-1-1-3-3-3-3-3-3-3-3-3-3-3-3-3-3-1-1-1-1-1-1-1-1-1-1-1-1-1-1-1-1--||-1-1-3-3-3-3-3-3-3-3-3-3-3-3-3-3-1-1-1-1-1-1-1-1-1-1-1-1-1-1-1-1--||-1-1-3-3-3-3-3-3-3-3-3-3-3-3-3-3-1-1-1-1-1-1-1-1-1-1-1-1-1-1-1-1--| . . . . . . . . . . . . . . . . . . . . . . . . . . Come out of PM
|-------------------------||-------------------------||-------------------------||-6~-----------//////////-||-6~-----------//////////-||-6~-----------//////////-| [x1]
Chorus
|--------------------------------------------------------------||--------------------------------------------------------------||-5-5-5-5-5-5-5-3--3-3-3-3-3-3---------------------------------||-5-5-5-5-5-5-5-3--3-3-3-3-3-3-6-6-6-6-6-6-6-6-6-6-6-6-6-6-6-6-||-3-3-3-3-3-3-3-1--1-1-1-1-1-1-6-6-6-6-6-6-6-6-6-6-6-6-6-6-6-6-||------------------------------6-6-6-6-6-6-6-6-6-6-6-6-6-6-6-6-|
|------------------------------------------------||------------------------------------------------||-5-5-5-5-5-5-5-3--3-3-3-3-3-3-------------------||-5-5-5-5-5-5-5-3--3-3-3-3-3-3-6-66-66-6-66-6666-||-3-3-3-3-3-3-3-1--1-1-1-1-1-1-6-66-66-6-66-6666-||------------------------------6-66-66-6-66-6666-|
|------------------------------------------------------------------||------------------------------------------------------------------||-3-3-3-3-3-3-3-3-5-5-5-5-5-5-5-5-8-8-8-8-8-8-8-8-8-8-8-8-8-8-8-8--||-3-3-3-3-3-3-3-3-5-5-5-5-5-5-5-5-8-8-8-8-8-8-8-8-8-8-8-8-8-8-8-8--||-1-1-1-1-1-1-1-1-3-3-3-3-3-3-3-3-6-6-6-6-6-6-6-6-6-6-6-6-6-6-6-6--||------------------------------------------------------------------|
|----------------------------------------------||----------------------------------------------||-5-5-5-5-5-5-3-3-3-3-3-3-3-5-3----------------||-5-5-5-5-5-5-3-3-3-3-3-3-3-5-3-6--------8-8-8-||-3-3-3-3-3-3-1-1-1-1-1-1-1-3-1-6--------8-8-8-||-------------------------------6--------8-8-8-| [x1]
Verse II
|------------------------------------------------------------------||------------------------------------------------------------------||--5-5-5-5-5-5-5-5-5-5-5-3-3-3-3-----------------------------------||--5-5-5-5-5-5-5-5-5-5-5-3-3-3-3-6--6--6-6-6-6-6-6-6-6-6-6-6-6-6-6-||--3-3-3-3-3-3-3-3-3-3-3-1-1-1-1-10-10-6-6-6-6-6-6-6-6-6-6-6-8-8-8-||--------------------------------6--6--6-6-6-6-6-6-6-6-6-6-6-6-6-6-| . . . . . . . . . . . . . . . . . . . . . . . . . . . . . . .
|-----------------------------------------------------------------||-----------------------------------------------------------------||-----------------------------------------------------------3-3-3-||-1-1-3-3-3-3-3-3-3-3-3-3-3-3-3-3-1-1-1-1-1-1-1-1-1-1-1-1-1-x-x-x-||-1-1-3-3-3-3-3-3-3-3-3-3-3-3-3-3-1-1-1-1-1-1-1-1-1-1-1-1-1-1-1-1-||-1-1-3-3-3-3-3-3-3-3-3-3-3-3-3-3-1-1-1-1-1-1-1-1-1-1-1-1-1-------| [x1] . . . . . . . . . . . . . . . . . . . . . . . . . . . . .
|-----------------------------------------------------------------||-----------------------------------------------------------------||-5-5-5-5-5-5-5-5-5-5-5-3-3-3-3-----------------------------------||-x-5-5-5-5-5-5-5-5-5-5-3-3-3-3-6--6--6-6-6-6-6-6-6-6-6-6-6-6-6-6-||-3-3-3-3-3-3-3-3-3-3-3-1-1-1-1-10-10-6-6-6-6-6-6-6-6-6-6-6-8-8-8-||-------------------------------6--6--6-6-6-6-6-6-6-6-6-6-6-6-6-6-| . . . . . . . . . . . . . . . . . . . . . . . . . . . . . .
|------------------------------------------------------------------||------------------------------------------------------------------||------------------------------------------------------------------||-1-1-3-3-3-3-3-3-3-3-3-3-3-3-3-3-1-1-1-1-1-1-1-1-1-1-1-1-1-1-1-1--||-1-1-3-3-3-3-3-3-3-3-3-3-3-3-3-3-1-1-1-1-1-1-1-1-1-1-1-1-1-1-1-1--||-1-1-3-3-3-3-3-3-3-3-3-3-3-3-3-3-1-1-1-1-1-1-1-1-1-1-1-1-1-1-1-1--| . . . . . . . . . . . . . . . . . . . . . . . . . . Come out of PM
|-------------------------||-------------------------||-------------------------||-6~-----------//////////-||-6~-----------//////////-||-6~-----------//////////-| [x1]
Chorus
|--------------------------------------------------------------||--------------------------------------------------------------||-5-5-5-5-5-5-5-3--3-3-3-3-3-3---------------------------------||-5-5-5-5-5-5-5-3--3-3-3-3-3-3-6-6-6-6-6-6-6-6-6-6-6-6-6-6-6-6-||-3-3-3-3-3-3-3-1--1-1-1-1-1-1-6-6-6-6-6-6-6-6-6-6-6-6-6-6-6-6-||------------------------------6-6-6-6-6-6-6-6-6-6-6-6-6-6-6-6-|
|------------------------------------------------||------------------------------------------------||-5-5-5-5-5-5-5-3--3-3-3-3-3-3-------------------||-5-5-5-5-5-5-5-3--3-3-3-3-3-3-6-66-66-6-66-6666-||-3-3-3-3-3-3-3-1--1-1-1-1-1-1-6-66-66-6-66-6666-||------------------------------6-66-66-6-66-6666-|
|------------------------------------------------------------------||------------------------------------------------------------------||-3-3-3-3-3-3-3-3-5-5-5-5-5-5-5-5-8-8-8-8-8-8-8-8-8-8-8-8-8-8-8-8--||-3-3-3-3-3-3-3-3-5-5-5-5-5-5-5-5-8-8-8-8-8-8-8-8-8-8-8-8-8-8-8-8--||-1-1-1-1-1-1-1-1-3-3-3-3-3-3-3-3-6-6-6-6-6-6-6-6-6-6-6-6-6-6-6-6--||------------------------------------------------------------------|
|-----------------------------------------||-----------------------------------------||-5-5-5-5-5-5-3-3-3-3-3-3-3-5-3-----------||-5-5-5-5-5-5-3-3-3-3-3-3-3-5-3-6---------||-3-3-3-3-3-3-1-1-1-1-1-1-1-3-1-6---------||-------------------------------6---------| [x1]
Bridge
|-------------------------||-------------------------||--8--8--8--8--8--7--7--7-||--10-10-10-10-10-8--8--8-||--10-10-10-10-10-10-10-10| [x4] Off Beats I think.|-------------------------|
|-----------------------------------------------------------------||-----------------------------------------------------------------||-----------------3-3-3-3-3-3-3-3-5-5-5-5-5-5-5-5-7-7-7-7-7-7-7-7-||-6-6-6-6-6-6-6-6-x-x-x-x-x-x-x-x-x-x-x-x-x-x-x-x-x-x-x-x-x-x-x-x-||-x-x-x-x-x-x-x-x-1-1-1-1-1-1-1-1-3-3-3-3-3-3-3-3-5-5-5-5-5-5-5-5-||-6-6-6-6-6-6-6-6-------------------------------------------------|
|-----------------------------------------------------------------------------------------||-----------------------------------------------------------------------------------------||-8-8-8-8-8-8-8-8-10-10-10-10-10-10-10-10-12-12-12-12-12-12-12-12-12-12-12-12-12-12-12-12-||-x-x-x-x-x-x-x-x-x--x--x--x--x--x--x--x--x--x--x--x--x--x--x--x--x--x--x--x--x--x--x--x--||-6-6-6-6-6-6-6-6-8--8--8--8--8--8--8--8--10-10-10-10-10-10-10-10-10-10-10-10-10-10-10-10-||-----------------------------------------------------------------------------------------|
|---------------------------------||---------------------------------||---------------------------------||-5-5-5-3-3-3-5-5-5-3-3-3-x-x-x-x-||-3-3-3-1-1-1-3-3-3-1-1-1-x-x-x-x-||-------------------------x-x-x-x-| [x1]
Chorus
|--------------------------------------------------------------||--------------------------------------------------------------||-5-5-5-5-5-5-5-3--3-3-3-3-3-3---------------------------------||-5-5-5-5-5-5-5-3--3-3-3-3-3-3-6-6-6-6-6-6-6-6-6-6-6-6-6-6-6-6-||-3-3-3-3-3-3-3-1--1-1-1-1-1-1-6-6-6-6-6-6-6-6-6-6-6-6-6-6-6-6-||------------------------------6-6-6-6-6-6-6-6-6-6-6-6-6-6-6-6-|
|------------------------------------------------||------------------------------------------------||-5-5-5-5-5-5-5-3--3-3-3-3-3-3-------------------||-5-5-5-5-5-5-5-3--3-3-3-3-3-3-6-66-66-6-66-6666-||-3-3-3-3-3-3-3-1--1-1-1-1-1-1-6-66-66-6-66-6666-||------------------------------6-66-66-6-66-6666-|
|------------------------------------------------------------------||------------------------------------------------------------------||-3-3-3-3-3-3-3-3-5-5-5-5-5-5-5-5-8-8-8-8-8-8-8-8-8-8-8-8-8-8-8-8--||-3-3-3-3-3-3-3-3-5-5-5-5-5-5-5-5-8-8-8-8-8-8-8-8-8-8-8-8-8-8-8-8--||-1-1-1-1-1-1-1-1-3-3-3-3-3-3-3-3-6-6-6-6-6-6-6-6-6-6-6-6-6-6-6-6--||------------------------------------------------------------------|
|------------------------------------------------||------------------------------------------------||-5-5-5-5-5-5-3-3-3-3-3-3-3-5-3------------------||-5-5-5-5-5-5-3-3-3-3-3-3-3-5-3-6-6-6-6-6-6-6-6--||-3-3-3-3-3-3-1-1-1-1-1-1-1-3-1-6-6-6-6-6-6-6-6--||-------------------------------6-6-6-6-6-6-6-6--| [x1]
Outro
|--------------------------------------------------------------||--------------------------------------------------------------||-5-5-5-5-5-5-5-3--3-3-3-3-3-3---------------------------------||-5-5-5-5-5-5-5-3--3-3-3-3-3-3-6-6-6-6-6-6-6-6-6-6-6-6-6-6-6-6-||-3-3-3-3-3-3-3-1--1-1-1-1-1-1-6-6-6-6-6-6-6-6-6-6-6-6-6-6-6-6-||------------------------------6-6-6-6-6-6-6-6-6-6-6-6-6-6-6-6-|
|------------------------------------------------||------------------------------------------------||-5-5-5-5-5-5-5-3--3-3-3-3-3-3-------------------||-5-5-5-5-5-5-5-3--3-3-3-3-3-3-6-66-66-6-66-6666-||-3-3-3-3-3-3-3-1--1-1-1-1-1-1-6-66-66-6-66-6666-||------------------------------6-66-66-6-66-6666-|
|------------------------------------------------------------------||------------------------------------------------------------------||-3-3-3-3-3-3-3-3-5-5-5-5-5-5-5-5-8-8-8-8-8-8-8-8-8-8-8-8-8-8-8-8--||-3-3-3-3-3-3-3-3-5-5-5-5-5-5-5-5-8-8-8-8-8-8-8-8-8-8-8-8-8-8-8-8--||-1-1-1-1-1-1-1-1-3-3-3-3-3-3-3-3-6-6-6-6-6-6-6-6-6-6-6-6-6-6-6-6--||------------------------------------------------------------------|
|----------------------||----------------------||-5-3-5-3-3-5-3--------||-5-3-5-3-3-5-3-6~-----||-3-1-3-1-1-3-1-6~-----||---------------6~-----| [x1]
I think is MOSTLY accurate. Leave comments and stuff If you think somethings different. | / slide up | \ slide down | h hammer-on | p pull-off | ~ vibrato | + harmonic | x Mute note ===============================================================================
Please rate this tab:
x1.0