Silverstein - The Artist tab

The Artist
By Silverstein
Rescue

Guitar 1 (Neil Boshart): Drop C# (C# G# C# F# A# D#)
Guitar 2 (Josh Bradford): Drop C# (C# G# C# F# A# D#)

NOTES: Hey everyone, I submitted a guitar pro tab for this song and I got a 
request to tab it out in text. I figured, why not? So here you go! 

_________________________________________________________________________________________

Guitar 1:

Intro|-----------------------|-----------------||-----------------------|-----------------||-----------------------|-----------------||-----------------------|-----------------||-\-\-\-\-\-\-\-\-\-\-\-|-\-\-\-\-\-\-\-\-||-\-P-I-C-K-S-L-I-D-E-\-|-\-\-\-\-\-\-\-\-|
Verse 1|---00-0-----00-0000-|---00-0--0--00-0000-||---66-6-----66-6666-|---66-6--5--55-5555-||---77-7-----77-7777-|---77-7--x--xx-xxxx-||-0-00-0--8--88-8888-|-5-55-5--7--77-7777-||-0-00-0--8--88-8888-|-5-55-5--7--77-7777-||-0-00-0--8--88-8888-|-5-55-5--7--77-7777-|
|---00-0-----00-0000-|---00-0--0--00-0000-||---66-6-----66-6666-|---66-6--5--55-5555-||---77-7-----77-7777-|---77-7--x--xx-xxxx-||-0-00-0--8--88-8888-|-5-55-5--7--77-7777-||-0-00-0--8--88-8888-|-5-55-5--7--77-7777-||-0-00-0--8--88-8888-|-5-55-5--7--77-7777-|
|----------------------------|-------------------------||----------------------------|-------------------------||-7-77-7--10--10-14--12--10--|-10-1010-10--9--9-10-9-5-||-x-xx-x--x---x--x---x---x---|-x--x-x--x---x--x-x--x-x-||-5-55-5--8---8--12--10--8---|-8--8-8--8---7--7-8--7-3-||----------------------------|-------------------------|
|----------------------------|--------------------------||----------------------------|--------------------------||-7-77-7--10--10-14--12--10--|-10-1010-10--9--9-9-10-12-||-x-xx-x--x---x--x---x---x---|-x--x-x--x---x--x-x-x--x--||-5-55-5--8---8--12--10--8---|-8--8-8--8---7--7-7-8--10-||----------------------------|--------------------------|
Breakdown 1|-----------------|------------------|---------------------|---------------------||-----------------|------------------|---------------------|---------------------||-----------------|------------------|---------------------|-10-10-10-10---------||-----------7-5---|------------------|-----------7-5h7p5---|-x--x--x--x--1-1-1-1-||-0000-00-8-----7-|-0000-00---5----7-|-0000-00-8---------7-|-8--8--8--8--1-1-1-1-||-0000-00---------|-0000-00-8---10---|-0000-00-------------|-------------1-1-1-1-| .... .. .... .. .... ..
|-----------------|------------------|---------------------|---------------------||-----------------|------------------|---------------------|---------------------||-----------------|------------------|---------------------|-10-10-10-10---------||-----------7-5---|------------------|-----------7-5h7p5---|-x--x--x--x--1-------||-0000-00-8-----7-|-0000-00---5----7-|-0000-00-8---------7-|-8--8--8--8--1-------||-0000-00---------|-0000-00-8---10---|-0000-00-------------|-------------1-------| .... .. .... .. .... ..
Verse 2|---00-0-----00-0000-|---00-0--0--00-0000-||---66-6-----66-6666-|---66-6--5--55-5555-||---77-7-----77-7777-|---77-7--x--xx-xxxx-||-0-00-0--8--88-8888-|-5-55-5--7--77-7777-||-0-00-0--8--88-8888-|-5-55-5--7--77-7777-||-0-00-0--8--88-8888-|-5-55-5--7--77-7777-|
|---00-0-----00-0000-|---00-0--0--00-0000-||---66-6-----66-6666-|---66-6--5--55-5555-||---77-7-----77-7777-|---77-7--x--xx-xxxx-||-0-00-0--8--88-8888-|-5-55-5--7--77-7777-||-0-00-0--8--88-8888-|-5-55-5--7--77-7777-||-0-00-0--8--88-8888-|-5-55-5--7--77-7777-|
|----------------------------|-------------------------||----------------------------|-------------------------||-7-77-7--10--10-14--12--10--|-10-1010-10--9--9-10-9-5-||-x-xx-x--x---x--x---x---x---|-x--x-x--x---x--x-x--x-x-||-5-55-5--8---8--12--10--8---|-8--8-8--8---7--7-8--7-3-||----------------------------|-------------------------|
|----------------------------|--------------------------||----------------------------|--------------------------||-7-77-7--10--10-14--12--10--|-10-1010-10--9--9-9-10-12-||-x-xx-x--x---x--x---x---x---|-x--x-x--x---x--x-x-x--x--||-5-55-5--8---8--12--10--8---|-8--8-8--8---7--7-7-8--10-||----------------------------|--------------------------|
Breakdown 2|-----------------|------------------|---------------------|---------------------||-----------------|------------------|---------------------|---------------------||-----------------|------------------|---------------------|-10-10-10-10---------||-----------7-5---|------------------|-----------7-5h7p5---|-x--x--x--x--1-1-1-1-||-0000-00-8-----7-|-0000-00---5----7-|-0000-00-8---------7-|-8--8--8--8--1-1-1-1-||-0000-00---------|-0000-00-8---10---|-0000-00-------------|-------------1-1-1-1-| .... .. .... .. .... ..
|-----------------|------------------|---------------------|---------------------||-----------------|------------------|---------------------|---------------------||-----------------|------------------|---------------------|-10-10-10-10---------||-----------7-5---|------------------|-----------7-5h7p5---|-x--x--x--x--1-1-1-1-||-0000-00-8-----7-|-0000-00---5----7-|-0000-00-8---------7-|-8--8--8--8--1-1-1-1-||-0000-00---------|-0000-00-8---10---|-0000-00-------------|-------------1-1-1-1-| .... .. .... .. .... ..
Pre Two-Step|---------|-----0-0-|--------|-----------------||---------|-----6-6-|--------|-----------------||---------|-----7-7-|--------|-10-10-----------||-0-------|---------|--------|-x--x---1--3-3-3-||-0-------|---------|--------|-8--8---1--3-3-3-||-0-------|---------|--------|--------1--3-3-3-|
|---------|-----0-0-|--------|-----------------||---------|-----6-6-|--------|-----------------||---------|-----7-7-|--------|-10-10-----------||-0-------|---------|--------|-x--x---1--3-3-3-||-0-------|---------|--------|-8--8---1--3-3-3-||-0-------|---------|--------|--------1--3-3-3-|
Two-Step|-----------------|-----------0---0-|-----------------|-----------------||-----------------|-----------6---6-|-----------------|-----------------||-----------------|-----------7---7-|-----------------|-10-10-----------||-----------------|-----------------|-----------------|-x--x---1--3-3-3-||-0-0-0-0-0-0-0-0-|-0-0-0-0-0---0---|-0-0-0-0-0-0-0-0-|-8--8---1--3-3-3-||-0-0-0-0-0-0-0-0-|-0-0-0-0-0---0---|-0-0-0-0-0-0-0-0-|--------1--3-3-3-| . . . . . . . . . . . . . . . . . . . . . .
|-----------------|-----------0---0-|-----------------|-----------------||-----------------|-----------6---6-|-----------------|-----------------||-----------------|-----------7---7-|-----------------|-10-10-----------||-----------------|-----------------|-----------------|-x--x---1--3-3-3-||-0-0-0-0-0-0-0-0-|-0-0-0-0-0---0---|-0-0-0-0-0-0-0-0-|-8--8---1--3-3-3-||-0-0-0-0-0-0-0-0-|-0-0-0-0-0---0---|-0-0-0-0-0-0-0-0-|--------1--3-3-3-| . . . . . . . . . . . . . . . . . . . . . .
Verse 3|---00-0-----00-0000-|---00-0--0--00-0000-||---66-6-----66-6666-|---66-6--5--55-5555-||---77-7-----77-7777-|---77-7--x--xx-xxxx-||-0-00-0--8--88-8888-|-5-55-5--7--77-7777-||-0-00-0--8--88-8888-|-5-55-5--7--77-7777-||-0-00-0--8--88-8888-|-5-55-5--7--77-7777-|
|---00-0-----00-0000-|---00-0--0--00-0000-||---66-6-----66-6666-|---66-6--5--55-5555-||---77-7-----77-7777-|---77-7--x--xx-xxxx-||-0-00-0--8--88-8888-|-5-55-5--7--77-7777-||-0-00-0--8--88-8888-|-5-55-5--7--77-7777-||-0-00-0--8--88-8888-|-5-55-5--7--77-7777-|
|----------------------------|-------------------------||----------------------------|-------------------------||-7-77-7--10--10-14--12--10--|-10-1010-10--9--9-10-9-5-||-x-xx-x--x---x--x---x---x---|-x--x-x--x---x--x-x--x-x-||-5-55-5--8---8--12--10--8---|-8--8-8--8---7--7-8--7-3-||----------------------------|-------------------------|
|----------------------------|-------------------------|-----------------||----------------------------|-------------------------|-----------------||-7-77-7--10--10-14--12--10--|-10-10-10-10-10-10-10-12-|-9-9-9-9-9-9-9-9-||-x-xx-x--x---x--x---x---x---|-x--x--x--x--x--x--x--x--|-x-x-x-x-x-x-x-x-||-5-55-5--8---8--12--10--8---|-8--8--8--8--8--8--8--10-|-7-7-7-7-7-7-7-7-||----------------------------|-------------------------|-----------------|
Bridge 1 *Watch for the switches from 4/4 to 2/4 time|-----0---0-------|-0---0-------5---|-----3---||-------6---6-----|---6---6---6---6-|---6---6-||-7-7---------7-7-|---------5-------|-5-------||-----------------|-----------------|---------||-----------------|-----------------|---------||-----------------|-----------------|---------| . . . . . . . .
|-----0---0-------|-0---0-------3---||-------6---6-----|---6---6---6---6-||-7-7---------7-7-|---------5-------||-----------------|-----------------||-----------------|-----------------||-----------------|-----------------| . . . . . .
|-----0---0-------|-0---0-------5---|-----3---||-------6---6-----|---6---6---6---6-|---6---6-||-7-7---------7-7-|---------5-------|-5-------||-----------------|-----------------|---------||-----------------|-----------------|---------||-----------------|-----------------|---------| . . . . . . . .
|-----0---0-------|-0---0-------3---||-------6---6-----|---6---6---6---6-||-7-7---------7-7-|---------5-------||-----------------|-----------------||-----------------|-----------------||-----------------|-----------------| . . . . . .
|-----0---0-------|-0---0-------5---|-----3---||-------6---6-----|---6---6---6---6-|---6---6-||-7-7---------7-7-|---------5-------|-5-------||-----------------|-----------------|---------||-----------------|-----------------|---------||-----------------|-----------------|---------| . . . . . . . .
|-----0---0-------|-0---0-------3---||-------6---6-----|---6---6---6---6-||-7-7---------7-7-|---------5-------||-----------------|-----------------||-----------------|-----------------||-----------------|-----------------| . . . . . .
|-----0---0-------|-0---0-------5---|-----3---||-------6---6-----|---6---6---6---6-|---6---6-||-7-7---------7-7-|---------5-------|-5-------||-----------------|-----------------|---------||-----------------|-----------------|---------||-----------------|-----------------|---------| . . . . . . . .
|-----0---0-------|-0---0---0---0---||-------6---6-----|---6---6---6---6-||-7-7---------7-7-|-----------------||-----------------|-----------------||-----------------|-----------------||-----------------|-----------------| . . . .
Breakdown 3|-----------------|---------------|-----------------|---------------||-----------------|---------------|-----------------|---------------||-----------------|---------------|-----------------|---------------||-----------------|---------------|-----------------|---------------||-0000-00-0000-00-|-------0000-00-|-0000-00-0000-00-|---------------||-0000-00-0000-00-|-------0000-00-|-0000-00-0000-00-|---------------| .... .. .... .. .... .. .... .. .... ..
Bridge 2|-------------------------|-------------------------||-------------------------|-------------------------||-10-10-10-10-10-10-10-10-|-10-10-10-10-10-10-10-10-||-x--x--x--x--x--x--x--x--|-x--x--x--x--x--x--x--x--||-8--8--8--8--8--8--8--8--|-8--8--8--8--8--8--8--8--||-------------------------|-------------------------|
|-----------------|-----------------|-----------------|-----------------||-----------------|-----------------|-----------------|-----------------||-9-9-9-9-9-9-9-9-|-9-9-9-9-9-9-9-9-|-7-7-7-7-7-7-7-7-|-7-7-7-7-7-7-7-7-||-x-x-x-x-x-x-x-x-|-x-x-x-x-x-x-x-x-|-x-x-x-x-x-x-x-x-|-x-x-x-x-x-x-x-x-||-7-7-7-7-7-7-7-7-|-7-7-7-7-7-7-7-7-|-5-5-5-5-5-5-5-5-|-5-5-5-5-5-5-5-5-||-----------------|-----------------|-----------------|-----------------|
|-------------------------|---------------------||-------------------------|---------------------||-10-10-10-10-10-10-10-10-|-10-10-10-10---------||-x--x--x--x--x--x--x--x--|-x--x--x--x----------||-8--8--8--8--8--8--8--8--|-8--8--8--8--0-0-0-0-||-------------------------|-------------0-0-0-0-| . . . .
|-------------------------|-------------------------||-------------------------|-------------------------||-10-10-10-10-10-10-10-10-|-10-10-10-10-10-10-10-10-||-x--x--x--x--x--x--x--x--|-x--x--x--x--x--x--x--x--||-8--8--8--8--8--8--8--8--|-8--8--8--8--8--8--8--8--||-------------------------|-------------------------|
|-----------------|-----------------|-----------------|-----------------||-----------------|-----------------|-----------------|-----------------||-9-9-9-9-9-9-9-9-|-9-9-9-9-9-9-9-9-|-7-7-7-7-7-7-7-7-|-7-7-7-7-7-7-7-7-||-x-x-x-x-x-x-x-x-|-x-x-x-x-x-x-x-x-|-x-x-x-x-x-x-x-x-|-x-x-x-x-x-x-x-x-||-7-7-7-7-7-7-7-7-|-7-7-7-7-7-7-7-7-|-5-5-5-5-5-5-5-5-|-5-5-5-5-5-5-5-5-||-----------------|-----------------|-----------------|-----------------|
|-------------------------|-----------------||-------------------------|-----------------||-10-10-10-10-10-10-10-10-|-10--------------||-x--x--x--x--x--x--x--x--|-x---------------||-8--8--8--8--8--8--8--8--|-8---------------||-------------------------|-----------------|
Outro Breakdown|-----------------|---------------|-----------------|----------------||-----------------|---------------|-----------------|----------------||-----------------|---------------|-----------------|----------------||-----------------|---------------|-----------------|----------------||-0000-00-0000-00-|-------0000-00-|-0000-00-0000-00-|--------0000-00-||-0000-00-0000-00-|-------0000-00-|-0000-00-0000-00-|--------0000-00-| .... .. .... .. .... .. .... .. .... .. .... ..
|-----------------|---------------|-----------------|----------------||-----------------|---------------|-----------------|----------------||-----------------|---------------|-----------------|----------------||-----------------|---------------|-----------------|----------------||-0000-00-0000-00-|-------0000-00-|-0000-00-0000-00-|--------0000-00-||-0000-00-0000-00-|-------0000-00-|-0000-00-0000-00-|--------0000-00-| .... .. .... .. .... .. .... .. .... .. .... ..
_________________________________________________________________________________________ Guitar 2:
Intro|-------------|-----------------------||-------------|-----------------------||-------------|-----------------------||-------------|-----------------------||-------------|-\-\-\-\-\-\-\-\-\-\-\-||-------------|-\-P-I-C-K-S-L-I-D-E-\-|
Verse 1|---00-0-----00-0000-|---00-0--0--00-0000-||---66-6-----66-6666-|---66-6--5--55-5555-||---77-7-----77-7777-|---77-7--x--xx-xxxx-||-0-00-0--8--88-8888-|-5-55-5--7--77-7777-||-0-00-0--8--88-8888-|-5-55-5--7--77-7777-||-0-00-0--8--88-8888-|-5-55-5--7--77-7777-|
|---00-0-----00-0000-|---00-0--0--00-0000-||---66-6-----66-6666-|---66-6--5--55-5555-||---77-7-----77-7777-|---77-7--x--xx-xxxx-||-0-00-0--8--88-8888-|-5-55-5--7--77-7777-||-0-00-0--8--88-8888-|-5-55-5--7--77-7777-||-0-00-0--8--88-8888-|-5-55-5--7--77-7777-|
|---00-0-----00-0000-|---00-0--0--00-0000-||---66-6-----66-6666-|---66-6--5--55-5555-||---77-7-----77-7777-|---77-7--x--xx-xxxx-||-0-00-0--8--88-8888-|-5-55-5--7--77-7777-||-0-00-0--8--88-8888-|-5-55-5--7--77-7777-||-0-00-0--8--88-8888-|-5-55-5--7--77-7777-|
|---00-0-----00-0000-|---00-0--0--00-0000-||---66-6-----66-6666-|---66-6--5--55-5555-||---77-7-----77-7777-|---77-7--x--xx-xxxx-||-0-00-0--8--88-8888-|-5-55-5--7--77-7777-||-0-00-0--8--88-8888-|-5-55-5--7--77-7777-||-0-00-0--8--88-8888-|-5-55-5--7--77-7777-|
Breakdown 1|-----------------|-----------------|---------------------|-----------------||-----------------|-----------------|---------------------|-----------------||-----------------|-----------------|---------------------|-----------------||-----------3-2---|-----------3---5-|-----------3-2h3p2---|-8-8-8-8-1-1-1-1-||-0000-00-5-----3-|-0000-00-5---7---|-0000-00-5---------3-|-8-8-8-8-1-1-1-1-||-0000-00---------|-0000-00---------|-0000-00-------------|-8-8-8-8-1-1-1-1-| .... .. .... .. .... ..
|-----------------|-----------------|---------------------|-----------------||-----------------|-----------------|---------------------|-----------------||-----------------|-----------------|---------------------|-----------------||-----------3-2---|-----------3---5-|-----------3-2h3p2---|-8-8-8-8-1-------||-0000-00-5-----3-|-0000-00-5---7---|-0000-00-5---------3-|-8-8-8-8-1-------||-0000-00---------|-0000-00---------|-0000-00-------------|-8-8-8-8-1-------| .... .. .... .. .... ..
Verse 2|---00-0-----00-0000-|---00-0--0--00-0000-||---66-6-----66-6666-|---66-6--5--55-5555-||---77-7-----77-7777-|---77-7--x--xx-xxxx-||-0-00-0--8--88-8888-|-5-55-5--7--77-7777-||-0-00-0--8--88-8888-|-5-55-5--7--77-7777-||-0-00-0--8--88-8888-|-5-55-5--7--77-7777-|
|---00-0-----00-0000-|---00-0--0--00-0000-||---66-6-----66-6666-|---66-6--5--55-5555-||---77-7-----77-7777-|---77-7--x--xx-xxxx-||-0-00-0--8--88-8888-|-5-55-5--7--77-7777-||-0-00-0--8--88-8888-|-5-55-5--7--77-7777-||-0-00-0--8--88-8888-|-5-55-5--7--77-7777-|
|---00-0-----00-0000-|---00-0--0--00-0000-||---66-6-----66-6666-|---66-6--5--55-5555-||---77-7-----77-7777-|---77-7--x--xx-xxxx-||-0-00-0--8--88-8888-|-5-55-5--7--77-7777-||-0-00-0--8--88-8888-|-5-55-5--7--77-7777-||-0-00-0--8--88-8888-|-5-55-5--7--77-7777-|
|---00-0-----00-0000-|---00-0--0--00-0000-||---66-6-----66-6666-|---66-6--5--55-5555-||---77-7-----77-7777-|---77-7--x--xx-xxxx-||-0-00-0--8--88-8888-|-5-55-5--7--77-7777-||-0-00-0--8--88-8888-|-5-55-5--7--77-7777-||-0-00-0--8--88-8888-|-5-55-5--7--77-7777-|
Breakdown 2|-----------------|-----------------|---------------------|-----------------||-----------------|-----------------|---------------------|-----------------||-----------------|-----------------|---------------------|-----------------||-----------3-2---|-----------3---5-|-----------3-2h3p2---|-8-8-8-8-1-1-1-1-||-0000-00-5-----3-|-0000-00-5---7---|-0000-00-5---------3-|-8-8-8-8-1-1-1-1-||-0000-00---------|-0000-00---------|-0000-00-------------|-8-8-8-8-1-1-1-1-| .... .. .... .. .... ..
|-----------------|-----------------|---------------------|-----------------||-----------------|-----------------|---------------------|-----------------||-----------------|-----------------|---------------------|-----------------||-----------3-2---|-----------3---5-|-----------3-2h3p2---|-8-8-8-8-1-1-1-1-||-0000-00-5-----3-|-0000-00-5---7---|-0000-00-5---------3-|-8-8-8-8-1-1-1-1-||-0000-00---------|-0000-00---------|-0000-00-------------|-8-8-8-8-1-1-1-1-| .... .. .... .. .... ..
Pre Two-Step|--------|--------|--------|-----------------||--------|--------|--------|-----------------||--------|--------|--------|-----------------||-0------|--------|--------|-8-8---1---3-3-3-||-0------|--------|--------|-8-8---1---3-3-3-||-0------|--------|--------|-8-8---1---3-3-3-|
|--------|--------|--------|-----------------||--------|--------|--------|-----------------||--------|----7-7-|--------|-----------------||-0------|----7-7-|--------|-8-8---1---3-3-3-||-0------|----5-5-|--------|-8-8---1---3-3-3-||-0------|--------|--------|-8-8---1---3-3-3-|
Two-Step|-----------------|-----------------|-----------------|-----------------||-----------------|-----------------|-----------------|-----------------||-----------------|-----------7---7-|-----------------|-----------------||-----------------|-----------x---x-|-----------------|-8-8---1---3-3-3-||-0-0-0-0-0-0-0-0-|-0-0-0-0-0-5-0-5-|-0-0-0-0-0-0-0-0-|-8-8---1---3-3-3-||-0-0-0-0-0-0-0-0-|-0-0-0-0-0---0---|-0-0-0-0-0-0-0-0-|-8-8---1---3-3-3-| . . . . . . . . . . . . . . . . . . . . . .
|-----------------|-----------------|-----------------|-----------------||-----------------|-----------------|-----------------|-----------------||-----------------|-----------7---7-|-----------------|-----------------||-----------------|-----------x---x-|-----------------|-8-8---1---3-3-3-||-0-0-0-0-0-0-0-0-|-0-0-0-0-0-5-0-5-|-0-0-0-0-0-0-0-0-|-8-8---1---3-3-3-||-0-0-0-0-0-0-0-0-|-0-0-0-0-0---0---|-0-0-0-0-0-0-0-0-|-8-8---1---3-3-3-| . . . . . . . . . . . . . . . . . . . . . .
Verse 3|---00-0-----00-0000-|---00-0--0--00-0000-||---66-6-----66-6666-|---66-6--5--55-5555-||---77-7-----77-7777-|---77-7--x--xx-xxxx-||-0-00-0--8--88-8888-|-5-55-5--7--77-7777-||-0-00-0--8--88-8888-|-5-55-5--7--77-7777-||-0-00-0--8--88-8888-|-5-55-5--7--77-7777-|
|---00-0-----00-0000-|---00-0--0--00-0000-||---66-6-----66-6666-|---66-6--5--55-5555-||---77-7-----77-7777-|---77-7--x--xx-xxxx-||-0-00-0--8--88-8888-|-5-55-5--7--77-7777-||-0-00-0--8--88-8888-|-5-55-5--7--77-7777-||-0-00-0--8--88-8888-|-5-55-5--7--77-7777-|
|---00-0-----00-0000-|---00-0--0--00-0000-||---66-6-----66-6666-|---66-6--5--55-5555-||---77-7-----77-7777-|---77-7--x--xx-xxxx-||-0-00-0--8--88-8888-|-5-55-5--7--77-7777-||-0-00-0--8--88-8888-|-5-55-5--7--77-7777-||-0-00-0--8--88-8888-|-5-55-5--7--77-7777-|
|---00-0-----00-0000-|-0-0-0-0-0-0-0-0-|-0-0-0-0-0-0-0-0-||---66-6-----66-6666-|-6-6-6-6-6-6-6-6-|-5-5-5-5-5-5-5-5-||---77-7-----77-7777-|-7-7-7-7-7-7-7-7-|-x-x-x-x-x-x-x-x-||-0-00-0--8--88-8888-|-5-5-5-5-5-5-5-5-|-7-7-7-7-7-7-7-7-||-0-00-0--8--88-8888-|-5-5-5-5-5-5-5-5-|-7-7-7-7-7-7-7-7-||-0-00-0--8--88-8888-|-5-5-5-5-5-5-5-5-|-7-7-7-7-7-7-7-7-|
Bridge 1 *Watch for the switches from 4/4 to 2/4 time|-----------------|-----------------|---------||-----------------|-----------------|---------||-----------------|-----------------|---------||-0-0-0-0-0-0-0-0-|-0-0-0-0-0-0-0-0-|-0-0-0-0-||-0-0-0-0-0-0-0-0-|-0-0-0-0-0-0-0-0-|-0-0-0-0-||-0-0-0-0-0-0-0-0-|-0-0-0-0-0-0-0-0-|-0-0-0-0-|
|-------------------------|-------------------------||-------------------------|-------------------------||-------------------------|-------------------------||-10-10-10-10-10-10-10-10-|-10-10-10-10-10-10-10-10-||-10-10-10-10-10-10-10-10-|-10-10-10-10-10-10-10-10-||-10-10-10-10-10-10-10-10-|-10-10-10-10-10-10-10-10-|
|-----------------|-----------------|---------||-----------------|-----------------|---------||-----------------|-----------------|---------||-8-8-8-8-8-8-8-8-|-8-8-8-8-8-8-8-8-|-8-8-8-8-||-8-8-8-8-8-8-8-8-|-8-8-8-8-8-8-8-8-|-8-8-8-8-||-8-8-8-8-8-8-8-8-|-8-8-8-8-8-8-8-8-|-8-8-8-8-|
|-----------------|-----------------||-----------------|-----------------||-----------------|-----------------||-0-0-0-0-0-0-0-0-|-0-0-0-0-0-0-0-0-||-0-0-0-0-0-0-0-0-|-0-0-0-0-0-0-0-0-||-0-0-0-0-0-0-0-0-|-0-0-0-0-0-0-0-0-|
|-----------------|-----------------|---------||-----------------|-----------------|---------||-----------------|-----------------|---------||-0-0-0-0-0-0-0-0-|-0-0-0-0-0-0-0-0-|-0-0-0-0-||-0-0-0-0-0-0-0-0-|-0-0-0-0-0-0-0-0-|-0-0-0-0-||-0-0-0-0-0-0-0-0-|-0-0-0-0-0-0-0-0-|-0-0-0-0-|
|-------------------------|-------------------------||-------------------------|-------------------------||-------------------------|-------------------------||-10-10-10-10-10-10-10-10-|-10-10-10-10-10-10-10-10-||-10-10-10-10-10-10-10-10-|-10-10-10-10-10-10-10-10-||-10-10-10-10-10-10-10-10-|-10-10-10-10-10-10-10-10-|
|-----------------|-----------------|---------||-----------------|-----------------|---------||-----------------|-----------------|---------||-8-8-8-8-8-8-8-8-|-8-8-8-8-8-8-8-8-|-8-8-8-8-||-8-8-8-8-8-8-8-8-|-8-8-8-8-8-8-8-8-|-8-8-8-8-||-8-8-8-8-8-8-8-8-|-8-8-8-8-8-8-8-8-|-8-8-8-8-|
|-----------------|-------------------||-----------------|-------------------||-----------------|-------------------||-0-0-0-0-0-0-0-0-|-------------------||-0-0-0-0-0-0-0-0-|-0-0-0-0-0-0-12\---||-0-0-0-0-0-0-0-0-|-0-0-0-0-0-0-12\---| . . . . . .
Breakdown 3|-----------------|---------------|-----------------|---------------||-----------------|---------------|-----------------|---------------||-----------------|---------------|-----------------|---------------||-----------------|---------------|-----------------|---------------||-0000-00-0000-00-|-------0000-00-|-0000-00-0000-00-|---------------||-0000-00-0000-00-|-------0000-00-|-0000-00-0000-00-|---------------| .... .. .... .. .... .. .... .. .... ..
Bridge 2|-----------------|-----------------|-----------------|-----------------||-----------------|-----------------|-----------------|-----------------||-----------------|-----------------|-----------------|-----------------||-8-8-8-8-8-8-8-8-|-8-8-8-8-8-8-8-8-|-7-7-7-7-7-7-7-7-|-7-7-7-7-7-7-7-7-||-8-8-8-8-8-8-8-8-|-8-8-8-8-8-8-8-8-|-7-7-7-7-7-7-7-7-|-7-7-7-7-7-7-7-7-||-8-8-8-8-8-8-8-8-|-8-8-8-8-8-8-8-8-|-7-7-7-7-7-7-7-7-|-7-7-7-7-7-7-7-7-|
|-----------------|-----------------|-----------------|-----------------||-----------------|-----------------|-----------------|-----------------||-----------------|-----------------|-----------------|-----------------||-5-5-5-5-5-5-5-5-|-5-5-5-5-5-5-5-5-|-3-3-3-3-3-3-3-3-|-3-3-3-3---------||-5-5-5-5-5-5-5-5-|-5-5-5-5-5-5-5-5-|-3-3-3-3-3-3-3-3-|-3-3-3-3-0-0-0-0-||-5-5-5-5-5-5-5-5-|-5-5-5-5-5-5-5-5-|-3-3-3-3-3-3-3-3-|-3-3-3-3-0-0-0-0-| . . . .
|-----------------|-----------------|-----------------|-----------------||-----------------|-----------------|-----------------|-----------------||-----------------|-----------------|-----------------|-----------------||-8-8-8-8-8-8-8-8-|-8-8-8-8-8-8-8-8-|-7-7-7-7-7-7-7-7-|-7-7-7-7-7-7-7-7-||-8-8-8-8-8-8-8-8-|-8-8-8-8-8-8-8-8-|-7-7-7-7-7-7-7-7-|-7-7-7-7-7-7-7-7-||-8-8-8-8-8-8-8-8-|-8-8-8-8-8-8-8-8-|-7-7-7-7-7-7-7-7-|-7-7-7-7-7-7-7-7-|
|-----------------|-----------------|-----------------|-----------------||-----------------|-----------------|-----------------|-----------------||-----------------|-----------------|-----------------|-----------------||-5-5-5-5-5-5-5-5-|-5-5-5-5-5-5-5-5-|-3-3-3-3-3-3-3-3-|-3---------------||-5-5-5-5-5-5-5-5-|-5-5-5-5-5-5-5-5-|-3-3-3-3-3-3-3-3-|-3---------------||-5-5-5-5-5-5-5-5-|-5-5-5-5-5-5-5-5-|-3-3-3-3-3-3-3-3-|-3---------------|
Outro Breakdown|-----------------|---------------|-----------------|----------------||-----------------|---------------|-----------------|----------------||-----------------|---------------|-----------------|----------------||-----------------|---------------|-----------------|----------------||-0000-00-0000-00-|-------0000-00-|-0000-00-0000-00-|--------0000-00-||-0000-00-0000-00-|-------0000-00-|-0000-00-0000-00-|--------0000-00-| .... .. .... .. .... .. .... .. .... .. .... ..
|-----------------|---------------|-----------------|----------------||-----------------|---------------|-----------------|----------------||-----------------|---------------|-----------------|----------------||-----------------|---------------|-----------------|----------------||-0000-00-0000-00-|-------0000-00-|-0000-00-0000-00-|--------0000-00-||-0000-00-0000-00-|-------0000-00-|-0000-00-0000-00-|--------0000-00-| .... .. .... .. .... .. .... .. .... .. .... ..
_________________________________________________________________________________________ Aaaaand there you have it. If you notice any typos, let me know. Stay br00tal! :D
Tap to rate this tab
 
# A B C D E F G H I J K L M N O P Q R S T U V W X Y Z